Song name
# A B C D E F G H I J K L M N O P Q R S T U V W X Y Z

God Machine - The Train Song tab

Tabbed by lookaway

The God Machine - The train song

Intro
e------------------|
B------------------|
G------------------|
D-----2-3-------0--|
A-0-0-----2-2-3----|
E------------------|

Chorus 1
e----------------------------------|
B-----1-----1----------------------|
G-------2-----2--------------------|
D-0-2-----0-----0-------2-2-2-3-2--|
A-----------------0-0-0------------|
E----------------------------------|

e-----------------------------------|
B-----1-----1-----------------------|
G---2---2-----2---------------------|
D-0-------0-----0-------2(let ring)-|
A-----------------0-0-0-------------|
E-----------------------------------|


Verse 2


e---0---------0---0----------------|
B---0-----------0---0--------------|
G---2------------------------------|
D---2------------------------------|
A---0------------------------------|
E---0------------------------------|


Outro solo
e-----------------------------------|--------------------------|
B-------------1-3-3-3/5-6-5-1-3-3/5-|----1-3-3-3/5-6-5-1-3-3/5-|
G-0-0h2p0-2-2-----------------------|-2-2----------------------|
D-----------------------------------|--------------------------|
A-----------------------------------|--------------------------|
E-----------------------------------|--------------------------|

e-----------------------------------------------------------------------|
B----1-3-3-3/5-6-5-1-3-3------------------------------------------------|
G-2-2-------------------------------------------------------------------|
D-----------------------------------------------------------------------|
A-----------------------------------------------------------------------|
E-----------------------------------------------------------------------|
Tap to rate this tab
# A B C D E F G H I J K L M N O P Q R S T U V W X Y Z