Song name
# A B C D E F G H I J K L M N O P Q R S T U V W X Y Z

Godflesh - Crush My Soul tab

Tabbed by: m1n0r_Threat
   xh2masterchief@aim.com

Godflesh
Song: Crush My Soul
Album: Selfless

Use a good amount of distortion/fuzz. Best played through a Marshall. A little 
but still awesome and easy to play.

Tuning: C#F#BEG#c#
*   pinch harmonic
tr  trill
/   slide
qb  quarter bend
hb  half bend

Guitar Intro
c#|----Play 7x------|-----8th time play-|
G#|-----------------|-------------------|
E |-----------------|-------------------|
B |-----9-9-9----9--|-----9-9-9*(1/4b)--|
F#|-----9-9-9----9--|-----9-9-----------|
C#|--0--7-7-7-0--7--|--0--7-7-----------|

Verse 1
|-----------------|
|-----------------|
|-----------------|
|-----9-9-9----9--|
|-----9-9-9----9--|
|--0--7-7-7-0--7--|

Verse 2
|----Play 3x------|------4th time Play--|
|-----------------|---------------------|
|-----------------|---------------------|
|-------4---5--5--|-----4tr5------------|
|-----5---5-------|---------------------|
|--0--------------|--0------------------|

Verse 3
|-------Play 3x------------------|--------4th time play--|
|--------------------------------|-------9*--------------|
|--------------------------9hb---|-------9*--------------|
|-------9qb-9qb-9qb-9hb----------|-----9-9*--------------|
|--------------------------------|-----------------------|
|--0--------------------0--------|--0--------------------|

Solo - tremolo picked
|--7-/-12---|------------|
|--7-/-12---|------------|
|--7-/-12---|------------|
|--7-/-12---|------------|
|-----------|------------|
|-----------|-0----------|
              ^ don't tremolo pick, just let it ring and get some feedback.

Song structure:
Synth Intro
Bass Intro
Guitar Intro - 1x               Timing is not exact. Please listen to the
Verse 1 - 8x                    song for the correct timing. Enjoy!
Verse 2 - 2x                    Questions/comments? Email me.
Verse 1 - 16x
Verse 2 - 2x
Verse 3 - 2x
Guitar Intro - 1x
Verse 1 - 8x
Verse 2 - 2x
Verse 1 - 8x
Verse 3 - 4x
Solo - 1x (ends at ~3:56)
Outro - synth and bass till the end.
Tap to rate this tab
# A B C D E F G H I J K L M N O P Q R S T U V W X Y Z