Song name
# A B C D E F G H I J K L M N O P Q R S T U V W X Y Z

Godflesh - Christbait Rising tab

Tabbed by: m1n0r_Threat
   xh2masterchief@aim.com

Godflesh
Song: Christbait Rising
Album: Streetcleaner

Use a good amount of distortion. Best played through a Marshall.

Tuning: BEADF#b
*   pinch harmonic
^   natural harmonic
~   vibrato
/   slide to
.   palm mute
\   slide out

Verse 1
b |---------------------------------|---------------------------------|
F#|---------------------------------|---------------------------------|
D |---0-0-0-0-0-0-0-0-0-0-----------|---0-0-0-0-0-0-0-0-0-0-----------|
A |--4-4-4-4-4-4-4-4-4-4--------7*--|--4-4-4-4-4-4-4-4-4-4--------9*--|
E |---------------------------------|---------------------------------|
B |------------------------6/0------|------------------------6/0------|

Verse 2
|-----------------------------------------------------------------------|
|--------------------------------------------------------------------3^-|
|---0-0-0-0-0-0-0-0-0-0-0-0-0-0-0-0-0-0-0-0-0-0-0-0-0-0-0-0-0-0-0-------|
|--5-5-5-5-5-5-5-5-5-5-5-5-5-5-5-5-5-5-5-5-5-5-5-5-5-5-5-5-5-5-5-5------|
|-----------------------------------------------------------------------|
|-----------------------------------------------------------------------|

Verse 3 (over Intro)
|------------------------------|
|-------0----------------------|
|----0-------------0-----------|
|--4-------------4-------------|
|------------------------------|
|---------------------0--------|
        ^             ^  let ring

Verse 4
|-----------------------------------|---------------------------------|
|-----------------------------------|---------------------------------|
|-----------------------------------|---------------------------------|
|---------------11~------------11\--|---------------------------------|
|-----------------------11~---------|---------------7------7*----7~---|
|--6-5-3-0---00----0000----000------|--6-5-3-0---00---0000---000------|
             ..    ....    ...                   ..   ....   ...

Outro
|---------------------------------|
|---------------------------------|
|---------------------------------|
|---------------------------------|
|------7------7-----7-----7-------|
|--0-0---0--0---0-0---0-0---------|

song structure:
Bass Intro
Verse 1
Verse 2 - 2x                   The timing is not exact. Please listen
Verse 3                        to the song for the correct timing. There
Verse 1                        are several harmonics and fills that I left
Verse 2 - 2x                   out, as JKB's style is somewhat improv. 
Verse 3                        Experiment with the song yourself and play
Verse 4 - 4x                   what sounds good. The A and D notes played
Verse 3                        in verses 1 and 2 are not exact, nor are the
Verse 1                        number of repetitions exact. Again, listen
Verse 2 - 2x                   to the song to figure it out. Enjoy!
Verse 3                        Questions/comments? Email me.
 
Verse 4 - 4x
'Solo' - bending on B ocatve(7), 5th string.
Outro - 8x (6x with bass,
last two times guitar only)

Tap to rate this tab
# A B C D E F G H I J K L M N O P Q R S T U V W X Y Z