Song name
# A B C D E F G H I J K L M N O P Q R S T U V W X Y Z

Godhead - Eleanor Rigby tab

Eleanor Rigby

tabbed by weavea03@excite.com

Intro:
|-----------------------|-----------------------------------------|
|-----------------------|-----------------------------------------|
|-----------------------|-----------------------------------------|
|--12--11--10-----2-----|---12--11--10---2-2-2-2-2-2-2-2----------|
|--12--11--10-----2-----|---12--11--10---2-2-2-2-2-2-2-2----------|
|-----------------------|-----------------------------------------|


Verse:

play softly      let 12 ring with tremo
|--------0-------12~~~~~~~-|
|-----0--------------------|
|--0-----------------------|
|--------------------------|
|--------------------------|
|--------------------------|


Chorus:

|-----------------------------------------------------------------------------------|
|-----------------------------------------------------------------------------------|
|-----------------------------------------------------------------------------------|
|--10-10-10-10-10-10-10-10-10-10-10-10-10-10-10-10--2-2-2-2-2-2-2-2-2-2-2-2-2-2-2-2-|
|--10-10-10-10-10-10-10-10-10-10-10-10-10-10-10-10--2-2-2-2-2-2-2-2-2-2-2-2-2-2-2-2-|
|-----------------------------------------------------------------------------------|

wow thats it
Tap to rate this tab
# A B C D E F G H I J K L M N O P Q R S T U V W X Y Z