Song name
# A B C D E F G H I J K L M N O P Q R S T U V W X Y Z

Godhead - Reckoning tab

Help us improve GuitareTab! Take a short survey!
The Reckoning

Album: 2000 Years of Human Error
Transcribed by: Lucas Aske
Email: groovykittenlotus@hotmail.com

email me any questions comments or mistakes to me
CHORUS:
------------------------------------------------------------------------------|
------------------------------------------------------------------------------|
------------------------------------------------------------------------------|
------------------------------------------------------------------------------|
-7-7-7--9--10-10-10--12-12-12-12--8-8-8-8-------------------------------------|
-5-5-5--7---8-8-8-8--10-10-10-10--6-6-6-6-------------------------------------|

after 1st chorus:
              hold last chord
------------------------------------------------------------------------------|
------------------------------------------------------------------------------|
------------------------------------------------------------------------------|
--------------2---------------------------------------------------------------|
-000-000-000--0---------------------------------------------------------------|
------------------------------------------------------------------------------|

CHORUS:
------------------------------------------------------------------------------|
------------------------------------------------------------------------------|
------------------------------------------------------------------------------|
------------------------------------------------------------------------------|
-7-7-7--9--10-10-10--12-12-12-12--8-8-8-8-------------------------------------|
-5-5-5--7---8-8-8-8--10-10-10-10--6-6-6-6-------------------------------------|

After 2nd chorus:
--------------------------x-----x--4-------4----------------------------------|
--------------------------|x---x---4-------4----------------------------------|
--------------------------|-x-x----4-------4----------------------------------|
--------------------------|--x-----444444444----------------------------------|
-7xxxx7xxxx7xxxx7/55555---|x--x------------4----------------------------------|
-5xxxx5xxxx5xxxx5-33333---x----x-----------4----------------------------------|
Related for Reckoning tab