Song name
# A B C D E F G H I J K L M N O P Q R S T U V W X Y Z

Godhead - Break You Down tab

Help us improve GuitareTab! Take a short survey!
          Author/Artist: gODHEAD
          Title: Break You Down
          Album: 2000 Years of Human Error
          Transcribed by: Lucas Aske
          Email: groovykittenlotus@hotmail.com
          
          If you have any ?'s, comments, or changes tell me what you think.
          Chorus
          ------------------------------------------------------------------------------
          ------------------------------------------------------------------------------
          ------------------------------------------------------------------------------
          -9-9-9------------------------------------------------------------------------
          -7-7-7--12-12-12--9-9-9--8-8-8--7-7-7-7--5-5-5--7-7-7--8-8-8--7-7-7--2-2-2-2--
          --------10-10-10--7-7-7--6-6-6--5-5-5-5--3-3-3--5-5-5--6-6-6--5-5-5--0-0-0-0--
                                                                                        
          A little thing mike does after the chorus
          ------------------------------------------------------------------------------
          ------------------------------------------------------------------------------
          -----------------^------------------------------------------------------------
          --9\-16-15--12--14------------------------------------------------------------
          --7--14-13--10--12------------------------------------------------------------
          ------------------------------------------------------------------------------
Related for Break You Down tab