Song name
# A B C D E F G H I J K L M N O P Q R S T U V W X Y Z

Godhead - Giveaway tab

Help us improve GuitareTab! Take a short survey!
The Giveaway by Godhead
Tabbed by R. Hilliard
Tab# :3
Contact: Thegrimlife@yahoo.com
Subject: Guitar Tab

PM=Palm Mute



   PM----|    PM----|    PM----|
E----------------------------------------------------|
B----------------------------------------------------|
G----------------------------------------------------|
D--22--22-----22--22-----22--22------/10---10---10---| 
A--22--22-----22--22-----22--22------/10---10---10---|
D--22--22-----22--22-----22--22------/10---10---10---|



   PM----|    PM----|    PM----|
E--------------------------------|
B--------------------------------|
G--------------------------------|
D--22--22-----22--22-----22--22--| 
A--22--22-----22--22-----22--22--|
D--22--22-----22--22-----22--22--| x3



+Repeat section twice:


   PM--------|  PM--------|  PM--------|
E----------------------------------------|
B----------------------------------------|
G----------------------------------------|
D--22--22--22---22--22--22---22--22--22--| 
A--22--22--22---22--22--22---22--22--22--|
D--22--22--22---22--22--22---22--22--22--|


   PM-------------------|
E----------------------------------------|
B----------------------------------------|
G----------------------------------------|
D--22--22--33--33--33--3-----------------| 
A--22--22--33--33--33--3-----------------|
D--22--22--33--33--33--3-----------------|

+End Repeat

+Chorus Section:
"Just give me away.  I betray..."

E---------------------------------------------------|
B---------------------------------------------------|
G---------------------------------------------------|
D-2222222222222222/10101010101010101010101010101010-| 
A-2222222222222222/10101010101010101010101010101010-|
D-2222222222222222/10101010101010101010101010101010-|


E----------------------------------------|
B----------------------------------------|
G----------------------------------------|
D-2222222222222222/5555555577733333------| 
A-2222222222222222/5555555577733333------|
D-2222222222222222/5555555577733333------|

+End Chorus Section


   PM----|    PM----|    PM----|
E----------------------------------------------------|
B----------------------------------------------------|
G----------------------------------------------------|
D--22--22-----22--22-----22--22------/10---10---10---| 
A--22--22-----22--22-----22--22------/10---10---10---|
D--22--22-----22--22-----22--22------/10---10---10---|


   PM----|    PM----|    PM----|
E---------------------------------------------|
B---------------------------------------------|
G---------------------------------------------|
D--22--22-----22--22-----22--22------7----3---| 
A--22--22-----22--22-----22--22------7----3---|
D--22--22-----22--22-----22--22------7----3---|


+Start Section:

   PM--------|  PM--------|  PM--------|
E----------------------------------------|
B----------------------------------------|
G----------------------------------------|
D--22--22--22---22--22--22---22--22--22--| 
A--22--22--22---22--22--22---22--22--22--|
D--22--22--22---22--22--22---22--22--22--|


   PM-------------------|
E----------------------------------------|
B----------------------------------------|
G----------------------------------------|
D--22--22--33--33--33--3-----------------| 
A--22--22--33--33--33--3-----------------|
D--22--22--33--33--33--3-----------------| x2 

+End Section

Wait for the length of section above, then play it once


+Chorus Section+


 "And it feels the same with everyone..."
E-------------------------------------------------------|
B-------------------------------------------------------|
G-------------------------------------------------------|
D--2----2--22---3----3--33---2----2---22---2----2---22--| 
A--0-x--0x-00--x3-x--3x-33--x2-x--2x--22--x2-x--2x--22-x|
D-------------------------------------------------------| x4


+Chorus Section+ 

Repeat till song ends
Related for Giveaway tab