Song name
# A B C D E F G H I J K L M N O P Q R S T U V W X Y Z

Godless Wicked Creeps - You Better Run tab

Intro:

-----------------------------|
-----------------------------|
-----------------------------|
--------------------0--------|
-0-3-2-0-2----333333-3-2~----|
-----------3-3---------------|

---------------------------------|
---------------------------------|
---------------------------------|
--------------------0----1-4~----|
-0-3-2-0-2----333333-3-2~--------|
-----------3-3-------------------|
~(let it ring)
Tap to rate this tab
# A B C D E F G H I J K L M N O P Q R S T U V W X Y Z