Song name
# A B C D E F G H I J K L M N O P Q R S T U V W X Y Z

Godless Wicked Creeps - You Better Run tab

E--------------------------------------------------------------|
B--------------------------------------------------------------|
G--------------------------------------------------------------|
D--------------------------------------------------------------|
A--0--3--2-0-2~~-------3-3-3-3-3-3--5-3-2~~~-------------------|
E-----------------0-0------------------------------------------|

E-----------------------------------------------------------------|
B-----------------------------------------------------------------|
G-----------------------------------------------------------------|
D-----------------------------------------------------------------|
A--0--3--2-0-2~~-------3-3-3-3-3-3--5-3-2~~~/6~~~~/9~~~-----------|
E-----------------0-0---------------------------------------------|

Just get the rhythm ... its eeeeeeeeeasy :D
Tap to rate this tab
 
# A B C D E F G H I J K L M N O P Q R S T U V W X Y Z