Song name
# A B C D E F G H I J K L M N O P Q R S T U V W X Y Z

Gods Of Blitz - New Wave Wipe-out tab

Help us improve GuitareTab! Take a short survey!
great song from a great band, so here it is:

verse: (the same as intro on bass)
e|----------------------------------|
B|----------------------------------|
G|----------------------------------|
D|-------7755555577-----------------|
A|-----------------------99------99-|
E|-777777----------555555--999999---|

chorus:
e|-------------------------------------------------------7--7-7-7-----|
B|-15--15-15-15--14----------------15--14--14-14-14------7--7-7-7--14-|
G|-16--16-16-16--14---9---9--9--9--16--14--14-14-14---9--7--7-7-7--14-|
D|-16--16-16-16--14---9---9--9--9--16--14--14-14-14---9--9--9-9-9--14-|
A|-14--14-14-14--12--10--10-10-10--14--12--12-12-12--10--9--9-9-9--12-|
E|-------------------------------------------------------7--7-7-7-----|
        
bridge: (2.01 min.)
 guitar 1:  
e|--------------------------------------|
B|--------------------------------------|
G|--------------------------------------|
D|--------------------------------------|
A|-12-14-12-----------12-14-12----------|
E|------------12-10--------------12-10--|
 guitar 2:
e|-7------------------5-----------------|
B|-7------------------5-----------------|
G|-7------------------6-----------------|
D|-9------------------7-----------------|
A|-9------------------7-----------------|
E|-7------------------5-----------------|

outro:
e|--77---------77---------77-------|
B|--77---------77---------77-------|
G|--77---------77---------77-------|
D|--99---------99---------99-------|
A|--99---------99---------99-------|
E|--77---------77---------77-------|

thx, and good night

>>> [masche] rules!!! <<<
Related for New Wave Wipe-out tab