Song name
# A B C D E F G H I J K L M N O P Q R S T U V W X Y Z

Godsmack - Whatever tab

Whatever
---------

song-  Whatever
band-  Godsmack
album- Godsmack
year-  1998

Drop C (C G C F)


Intro

 /-------7x--------\

|-------------------|--------------|
|-------------------|--------------|
|-------------------|--------------|
|0-0---0-0--0-0--0--|0-0-----------|



Verse 1

 /--------8x-------\

|-------------------|
|-------------------|
|-------------------|
|0-0---0-0--0-0--0--|


Pre-Chorus 1

|--------------------------|---------------------------------|
|--------------------------|---------------------------------|
|--------5-----------------|-------5-----3-------------------|
|0---------------6----6-6--|0------------------5--5---3--3---|



Chorus 1

|------------------|------------------|
|------------------|------------------|
|------------------|------------------|
|0--0---6---5---3--|0--0---6---5---3--|

|------------------|------------------|---------------|
|------------------|------------------|---------------|
|------------------|------------------|---------------|
|0--0---6---5---3--|0--0---6---5---3--|0-0------------|



Interlude

 /--------4x-------\

|-------------------|
|-------------------|
|-------------------|
|0-0---0-0--0-0--0--|


Verse 2

 /-------7x--------\

|-------------------|-------------------|
|-------------------|-------------------|
|-------------------|-------------------|
|0-0---0-0--0-0--0--|0-0-------5--3--2--|



Pre-Chorus 2

 /-----------------------------2x---------------------------\

|--------------------------|---------------------------------|
|--------------------------|---------------------------------|
|--------5-----------------|-------5-----3-------------------|
|0---------------6----6-6--|0------------------5--5---3--3---|


Chorus 2

|------------------|------------------|
|------------------|------------------|
|------------------|------------------|
|0--0---6---5---3--|0--0---6---5---3--|

|------------------|------------------|-----------------|
|------------------|------------------|-----------------|
|------------------|------------------|-----------------|
|0--0---6---5---3--|0--0---6---5---3--|0--3---3---3--3--|

|------------------|------------------|
|------------------|------------------|
|------------------|------------------|
|0--0---6---5---3--|0--0---6---5---3--|

|------------------|------------------|-----------------|
|------------------|------------------|-----------------|
|------------------|------------------|-----------------|
|0--0---6---5---3--|0--0---6---5---3--|0--3---3---3--3--|


Bridge

 /-------16x-------\

|-------------------|-------------------------------------|
|-------------------|-------------------------------------|
|-------------------|-------------------------------------|
|0-0---0-0--0-0--0--|0--0-0---0--0-0---0--0-0---0--0-0----|


Chorus 3

|------------------|------------------|
|------------------|------------------|
|------------------|------------------|
|0--0---6---5---3--|0--0---6---5---3--|

|------------------|------------------|-----------------|
|------------------|------------------|-----------------|
|------------------|------------------|-----------------|
|0--0---6---5---3--|0--0---6---5---3--|0--3---3---3--3--|

|------------------|------------------|
|------------------|------------------|
|------------------|------------------|
|0--0---6---5---3--|0--0---6---5---3--|

|------------------|------------------|-----------------|
|------------------|------------------|-----------------|
|------------------|------------------|-----------------|
|0--0---6---5---3--|0--0---6---5---3--|0--3---3---3--3--|


Outro

 /-------7x--------\

|-------------------|--------------|
|-------------------|--------------|
|-------------------|--------------|
|0-0---0-0--0-0--0--|0-0-----------|

Tap to rate this tab
# A B C D E F G H I J K L M N O P Q R S T U V W X Y Z