Song name
# A B C D E F G H I J K L M N O P Q R S T U V W X Y Z

Godsmack - I Stand Alone tab

 I Stand Alone                 


                                     Godsmack
Guitar 1
Drop D (2 Down)


Intro
     S S S  E   S E  S  E   S S S  S  S  
D||-------------------------------------|
A||-------------------------------------|
F||--------14--14------15--15-----15-15-|
C||---------x---x-------x---x------x--x-|
G||--------12--12------13--13-----13-13-|
C||--0-0-0--------0--0--------0-0-------|


  S S S  E   S E  S  E   S S S  S  S  
-------------------------------------|
-------------------------------------|
--------14--14------15--15-----15-15-|
---------x---x-------x---x------x--x-|
--------12--12------13--13-----13-13-|
--0-0-0--------0--0--------0-0-------|


  S S S  E   S E  S  E   S S S  S  S  
-------------------------------------|
-------------------------------------|
--------14--14------15--15-----15-15-|
---------x---x-------x---x------x--x-|
--------12--12------13--13-----13-13-|
--0-0-0--------0--0--------0-0-------|


  S S S  E   S E  S  E   S S S  S  S  
-------------------------------------|
-------------------------------------|
--------14--14------15--15-----15-15-|
---------x---x-------x---x------x--x-|
--------12--12------13--13-----13-13-|
--0-0-0--------0--0--------0-0-------|

Verse
  S S S  E   S E  S  E   S S S  S  S  
-------------------------------------|
-------------------------------------|
--------14--14------15--15-----15-15-|
---------x---x-------x---x------x--x-|
--0-0-0-12--12-0--0-13--13-0-0-13-13-|
--0-0-0--------0--0--------0-0-------|


  S S S  E   S E  S  E   S S S  S  S  
-------------------------------------|
-------------------------------------|
--------14--14------15--15-----15-15-|
---------x---x-------x---x------x--x-|
--0-0-0-12--12-0--0-13--13-0-0-13-13-|
--0-0-0--------0--0--------0-0-------|


  S S S  E   S E  S  E   S S S  S  S  
-------------------------------------|
-------------------------------------|
--------14--14------15--15-----15-15-|
---------x---x-------x---x------x--x-|
--0-0-0-12--12-0--0-13--13-0-0-13-13-|
--0-0-0--------0--0--------0-0-------|


  S S S  E   S E  S  E   S S S  S  S  
-------------------------------------|
-------------------------------------|
--------14--14------15--15-----15-15-|
---------x---x-------x---x------x--x-|
--0-0-0-12--12-0--0-13--13-0-0-13-13-|
--0-0-0--------0--0--------0-0-------|


  Q    S S Q    S S E  S S  
---------------------------|
---------------------------|
---------------------------|
--0----x-x-0----x-x-6--6-6-|
--0----x-x-0----x-x-6--6-6-|
--0----x-x-0----x-x-6--6-6-|


  Q    S S Q    S S S  S E   
----------------------------|
----------------------------|
----------------------------|
--0----x-x-0----x-x-5p-3-3--|
--0----x-x-0----x-x-5p-3-3--|
--0----x-x-0----x-x-5p-3-3--|


  Q    S S Q    S S E  S S  
---------------------------|
---------------------------|
---------------------------|
--0----x-x-0----x-x-6--6-6-|
--0----x-x-0----x-x-6--6-6-|
--0----x-x-0----x-x-6--6-6-|


  Q    S S Q    S S S E  S  
---------------------------|
---------------------------|
---------------------------|
--0----x-x-0----x-x-x-x--x-|
--0----x-x-0----x-x-x-x--x-|
--0----x-x-0----x-x-x-x--x-|


  Q    S S Q    S S E  S S  
---------------------------|
---------------------------|
---------------------------|
--0----x-x-0----x-x-6--6-6-|
--0----x-x-0----x-x-6--6-6-|
--0----x-x-0----x-x-6--6-6-|


  Q    S S Q    S S S  S E   
----------------------------|
----------------------------|
----------------------------|
--0----x-x-0----x-x-5p-3-3--|
--0----x-x-0----x-x-5p-3-3--|
--0----x-x-0----x-x-5p-3-3--|


  Q    S S Q    S S E  S S  
---------------------------|
---------------------------|
---------------------------|
--0----x-x-0----x-x-6--6-6-|
--0----x-x-0----x-x-6--6-6-|
--0----x-x-0----x-x-6--6-6-|


  H        Q    Q      
----------------------|
----------------------|
----------------------|
--6--------L----6S----|
--6--------L----6S----|
--6--------L----6S----|

Chorus
  S S S  E   S E  S  E   S S S  S  S  
-------------------------------------|
-------------------------------------|
--------14--14------15--15-----15-15-|
---------x---x-------x---x------x--x-|
--0-0-0-12--12-0--0-13--13-0-0-13-13-|
--0-0-0--------0--0--------0-0-------|


  S S S  E   S E  S  E   S S S  S  S  
-------------------------------------|
-------------------------------------|
--------14--14------15--15-----15-15-|
---------x---x-------x---x------x--x-|
--0-0-0-12--12-0--0-13--13-0-0-13-13-|
--0-0-0--------0--0--------0-0-------|


  S S S  E   S E  S  E   S S S  S  S  
-------------------------------------|
-------------------------------------|
--------14--14------15--15-----15-15-|
---------x---x-------x---x------x--x-|
--0-0-0-12--12-0--0-13--13-0-0-13-13-|
--0-0-0--------0--0--------0-0-------|


  S S S  E   S E  S  E   S S S  S  S  
-------------------------------------|
-------------------------------------|
--------14--14------15--15-----15-15-|
---------x---x-------x---x------x--x-|
--0-0-0-12--12-0--0-13--13-0-0-13-13-|
--0-0-0--------0--0--------0-0-------|


  Q    S S Q    S S E  S S  
---------------------------|
---------------------------|
---------------------------|
--0----x-x-0----x-x-6--6-6-|
--0----x-x-0----x-x-6--6-6-|
--0----x-x-0----x-x-6--6-6-|


  Q    S S Q    S S S  S E   
----------------------------|
----------------------------|
----------------------------|
--0----x-x-0----x-x-5p-3-3--|
--0----x-x-0----x-x-5p-3-3--|
--0----x-x-0----x-x-5p-3-3--|


  Q    S S Q    S S E  S S  
---------------------------|
---------------------------|
---------------------------|
--0----x-x-0----x-x-6--6-6-|
--0----x-x-0----x-x-6--6-6-|
--0----x-x-0----x-x-6--6-6-|


  Q    S S Q    S S S E  S  
---------------------------|
---------------------------|
---------------------------|
--0----x-x-0----x-x-x-x--x-|
--0----x-x-0----x-x-x-x--x-|
--0----x-x-0----x-x-x-x--x-|


  Q    S S Q    S S E  S S  
---------------------------|
---------------------------|
---------------------------|
--0----x-x-0----x-x-6--6-6-|
--0----x-x-0----x-x-6--6-6-|
--0----x-x-0----x-x-6--6-6-|


  Q    S S Q    S S S  S E   
----------------------------|
----------------------------|
----------------------------|
--0----x-x-0----x-x-5p-3-3--|
--0----x-x-0----x-x-5p-3-3--|
--0----x-x-0----x-x-5p-3-3--|


  Q    S S Q    S S E  S S  
---------------------------|
---------------------------|
---------------------------|
--0----x-x-0----x-x-6--6-6-|
--0----x-x-0----x-x-6--6-6-|
--0----x-x-0----x-x-6--6-6-|


  Q    S S Q    S S S  S E   
----------------------------|
----------------------------|
----------------------------|
--0----x-x-0----x-x-5p-3-3--|
--0----x-x-0----x-x-5p-3-3--|
--0----x-x-0----x-x-5p-3-3--|


  E.  S S S E.  S E  Q     
--------------------------|
--------------------------|
--------------------------|
--5---5-5-5-5---5-5--5----|
--5---5-5-5-5---5-5--5----|
--5---5-5-5-5---5-5--5----|


  E.  S S S E.  S E  E  S S  
----------------------------|
----------------------------|
----------------------------|
--8---8-8-8-8---8-8--1--1-1-|
--8---8-8-8-8---8-8--1--1-1-|
--8---8-8-8-8---8-8--1--1-1-|


  S S S  E   S E  S  E   S S S  S  S  
-------------------------------------|
-------------------------------------|
--------14--14------15--15-----15-15-|
---------x---x-------x---x------x--x-|
--0-0-0-12--12-0--0-13--13-0-0-13-13-|
--0-0-0--------0--0--------0-0-------|


  S S S  E   S E  S  E   S S S  E    
------------------------------------|
------------------------------------|
--------14--14------15--15----------|
---------x---x-------x---x-----15S--|
--0-0-0-12--12-0--0-13--13-0-0-15S--|
--0-0-0--------0--0--------0-0-15S--|


  E.  S S S E.  S E  Q     
--------------------------|
--------------------------|
--------------------------|
--5---5-5-5-5---5-5--5----|
--5---5-5-5-5---5-5--5----|
--5---5-5-5-5---5-5--5----|


  E.  S S S E.  S E  Q     
--------------------------|
--------------------------|
--------------------------|
--8---8-8-8-8---8-8--8----|
--8---8-8-8-8---8-8--8----|
--8---8-8-8-8---8-8--8----|


  S S S  E   S E  S  E   S S S  S  S  
-------------------------------------|
-------------------------------------|
--------14--14------15--15-----15-15-|
---------x---x-------x---x------x--x-|
--0-0-0-12--12-0--0-13--13-0-0-13-13-|
--0-0-0--------0--0--------0-0-------|


  S S S  E   S E  S  E   S S S  S  S  
-------------------------------------|
-------------------------------------|
--------14--14------15--15-----15-15-|
---------x---x-------x---x------x--x-|
--0-0-0-12--12-0--0-13--13-0-0-13-13-|
--0-0-0--------0--0--------0-0-------|


  E.  S S S E.  S E  Q     
--------------------------|
--------------------------|
--------------------------|
--5---5-5-5-5---5-5--5----|
--5---5-5-5-5---5-5--5----|
--5---5-5-5-5---5-5--5----|


  E.  S S S E.  S E  E  S S  
----------------------------|
----------------------------|
----------------------------|
--8---8-8-8-8---8-8--1--1-1-|
--8---8-8-8-8---8-8--1--1-1-|
--8---8-8-8-8---8-8--1--1-1-|


  S S S  E   S E  S  E   S S S  S  S  
-------------------------------------|
-------------------------------------|
--------14--14------15--15-----15-15-|
---------x---x-------x---x------x--x-|
--0-0-0-12--12-0--0-13--13-0-0-13-13-|
--0-0-0--------0--0--------0-0-------|


  S S S  E   S E  S  E   S S S  S  S  
-------------------------------------|
-------------------------------------|
--------14--14------15--15-----15-15-|
---------x---x-------x---x------x--x-|
--0-0-0-12--12-0--0-13--13-0-0-13-13-|
--0-0-0--------0--0--------0-0-------|


  S S S  E   S E  S  E   S S S  S  S  
-------------------------------------|
-------------------------------------|
--------14--14------15--15-----15-15-|
---------x---x-------x---x------x--x-|
--0-0-0-12--12-0--0-13--13-0-0-13-13-|
--0-0-0--------0--0--------0-0-------|


  S S S  E   S E  S  E   S S S  S  S  
-------------------------------------|
-------------------------------------|
--------14--14------15--15-----15-15-|
---------x---x-------x---x------x--x-|
--0-0-0-12--12-0--0-13--13-0-0-13-13-|
--0-0-0--------0--0--------0-0-------|

Bridge Guitar 1: 
  E.  E.  E  H         
----------------------|
----------------------|
----------------------|
--0-------0--L--------|
--0---0---------------|
--0-------------------|


  E.  E.  E  H         
----------------------|
----------------------|
----------------------|
----------0--L--------|
------0---------------|
--0-------------------|


  E.  E.  E  H         
----------------------|
----------------------|
----------------------|
----------5--L--------|
------3---------------|
--3-------------------|


  E.  E.  E  H         
----------------------|
----------------------|
----------------------|
----------5--L--------|
------3---------------|
--3-------------------|


  E.  E.  E  H         
----------------------|
----------------------|
----------------------|
----------0--L--------|
------0---------------|
--0-------------------|


  E.  E.  E  H         
----------------------|
----------------------|
----------------------|
----------0--L--------|
------0---------------|
--0-------------------|


  E.  E.  E  H         
----------------------|
----------------------|
----------------------|
----------5--L--------|
------3---------------|
--3-------------------|


  E.  E.  E  H         
----------------------|
----------------------|
----------------------|
----------5--L--------|
------3---------------|
--3-------------------|


  E.  E.  E  H         
----------------------|
----------------------|
----------------------|
----------0--L--------|
------0---------------|
--0-------------------|


  E.  E.  E  H         
----------------------|
----------------------|
----------------------|
----------0--L--------|
------0---------------|
--0-------------------|


  E.  E.  E  H         
----------------------|
----------------------|
----------------------|
----------5--L--------|
------3---------------|
--3-------------------|


  E.  E.  E  H         
----------------------|
----------------------|
----------------------|
----------5--L--------|
------3---------------|
--3-------------------|


  E.  E.  E  H         
----------------------|
----------------------|
----------------------|
----------0--L--------|
------0---------------|
--0-------------------|


  E.  E.  E  H         
----------------------|
----------------------|
----------------------|
----------0--L--------|
------0---------------|
--0-------------------|


  E.  E.  E  H         
----------------------|
----------------------|
----------------------|
----------5--L--------|
------3---------------|
--3-------------------|


  E.  E.  E  S E  S S E  S  
---------------------------|
---------------------------|
---------------------------|
----------5----------------|
------3------1-3--3-0-1--1-|
--3----------1-3--3-0-1--1-|

Bridge Guitar 2:
 W                   W                 
-------------------|-------------------|
-------------------|-------------------|
-------------------|-------------------|
--0----------------|--L----------------|
--0----------------|--L----------------|
--0----------------|--L----------------|


  W                   W                 
-------------------|-------------------|
-------------------|-------------------|
-------------------|-------------------|
--L----------------|--L----------------|
--L----------------|--L----------------|
--L----------------|--L----------------|


                   pick scrape  
  H        Q    E  E            
-------------------------------|
-------------------------------|
-------------------------------|
-------------------------------|
-------------------------------|
-------------------x-----------|


  W                   W                 
-------------------|-------------------|
-------------------|-------------------|
-------------------|-------------------|
-------------------|-------------------|
-------------------|-------------------|
--x----------------|-------------------|


  W                   Q    E  E  H         
-------------------|----------------------|
-------------------|----------3--L--------|
-------------------|----------2--L--------|
-------------------|----------0--L--------|
-------------------|----------------------|
-------------------|----------------------|


  H        H           W                 
--------------------|-------------------|
--L-----------------|-------------------|
--L-----------------|-------------------|
--L-----------------|-------------------|
--------------------|-------------------|
--------------------|-------------------|


  H        S E  S S E  S  
-------------------------|
-------------------------|
-------------------------|
-------------------------|
-----------1-3--3-0-1--1-|
-----------1-3--3-0-1--1-|


  W                   W                 
-------------------|-------------------|
-------------------|-------------------|
-------------------|-------------------|
--0----------------|--L----------------|
--0----------------|--L----------------|
--0----------------|--L----------------|


  W                   W                 
-------------------|-------------------|
-------------------|-------------------|
-------------------|-------------------|
-------------------|-------------------|
-------------------|-------------------|
-------------------|-------------------|


Verse:
  Q    S S Q    S S E  S S  
---------------------------|
---------------------------|
---------------------------|
--0----x-x-0----x-x-6--6-6-|
--0----x-x-0----x-x-6--6-6-|
--0----x-x-0----x-x-6--6-6-|


  Q    S S Q    S S S  S E   
----------------------------|
----------------------------|
----------------------------|
--0----x-x-0----x-x-5p-3-3--|
--0----x-x-0----x-x-5p-3-3--|
--0----x-x-0----x-x-5p-3-3--|


  Q    S S Q    S S E  S S  
---------------------------|
---------------------------|
---------------------------|
--0----x-x-0----x-x-6--6-6-|
--0----x-x-0----x-x-6--6-6-|
--0----x-x-0----x-x-6--6-6-|


  H        Q    Q      
----------------------|
----------------------|
----------------------|
--6--------L----6S----|
--6--------L----6S----|
--6--------L----6S----|


  S S S  E   S E  S  E   S S S  S  S  
-------------------------------------|
-------------------------------------|
--------14--14------15--15-----15-15-|
---------x---x-------x---x------x--x-|
--0-0-0-12--12-0--0-13--13-0-0-13-13-|
--0-0-0--------0--0--------0-0-------|


  S S S  E   S E  S  E   S S S  S  S  
-------------------------------------|
-------------------------------------|
--------14--14------15--15-----15-15-|
---------x---x-------x---x------x--x-|
--0-0-0-12--12-0--0-13--13-0-0-13-13-|
--0-0-0--------0--0--------0-0-------|


  S S S  E   S E  S  E   S S S  S  S  
-------------------------------------|
-------------------------------------|
--------14--14------15--15-----15-15-|
---------x---x-------x---x------x--x-|
--0-0-0-12--12-0--0-13--13-0-0-13-13-|
--0-0-0--------0--0--------0-0-------|


  S S S  E   S E  S  E   S S S  E    
------------------------------------|
------------------------------------|
--------14--14------15--15----------|
---------x---x-------x---x-----11S--|
--0-0-0-12--12-0--0-13--13-0-0-11S--|
--0-0-0--------0--0--------0-0-11S--|


  E.  S S S E.  S E  Q     
--------------------------|
--------------------------|
--------------------------|
--5---5-5-5-5---5-5--5----|
--5---5-5-5-5---5-5--5----|
--5---5-5-5-5---5-5--5----|


  E.  S S S E.  S E  Q     
--------------------------|
--------------------------|
--------------------------|
--8---8-8-8-8---8-8--8----|
--8---8-8-8-8---8-8--8----|
--8---8-8-8-8---8-8--8----|


  S S S  E   S E  S  E   S S S  S  S  
-------------------------------------|
-------------------------------------|
--------14--14------15--15-----15-15-|
---------x---x-------x---x------x--x-|
--0-0-0-12--12-0--0-13--13-0-0-13-13-|
--0-0-0--------0--0--------0-0-------|


  S S S  E   S E  S  E   S S S  E    
------------------------------------|
------------------------------------|
--------14--14------15--15----------|
---------x---x-------x---x-----11S--|
--0-0-0-12--12-0--0-13--13-0-0-11S--|
--0-0-0--------0--0--------0-0-11S--|


  E.  S S S E.  S E  Q     
--------------------------|
--------------------------|
--------------------------|
--5---5-5-5-5---5-5--5----|
--5---5-5-5-5---5-5--5----|
--5---5-5-5-5---5-5--5----|


  E.  S S S E.  S E  Q     
--------------------------|
--------------------------|
--------------------------|
--8---8-8-8-8---8-8--8----|
--8---8-8-8-8---8-8--8----|
--8---8-8-8-8---8-8--8----|


  S S S  E   S E  S  E   S S S  S  S  
-------------------------------------|
-------------------------------------|
--------14--14------15--15-----15-15-|
---------x---x-------x---x------x--x-|
--0-0-0-12--12-0--0-13--13-0-0-13-13-|
--0-0-0--------0--0--------0-0-------|


  S S S  E   S E  S  E   S S S  S  S  
-------------------------------------|
-------------------------------------|
--------14--14------15--15-----15-15-|
---------x---x-------x---x------x--x-|
--0-0-0-12--12-0--0-13--13-0-0-13-13-|
--0-0-0--------0--0--------0-0-------|


  S S S  E   S E  S  E   S S S  S  S  
-------------------------------------|
-------------------------------------|
--------14--14------15--15-----15-15-|
---------x---x-------x---x------x--x-|
--0-0-0-12--12-0--0-13--13-0-0-13-13-|
--0-0-0--------0--0--------0-0-------|


  S S S  E   S E  S  E   S S S  S  S  
-------------------------------------|
-------------------------------------|
--------14--14------15--15-----15-15-|
---------x---x-------x---x------x--x-|
--0-0-0-12--12-0--0-13--13-0-0-13-13-|
--0-0-0--------0--0--------0-0-------|


  S S S E  S E  S E  S S S S S  
-------------------------------|
-------------------------------|
-------------------------------|
--------7--7------8--8-----8-8-|
--------7--7------8--8-----8-8-|
--0-0-0-7--7-0--0-8--8-0-0-8-8-|


  S S S E  S E  S E  S S S S S  
-------------------------------|
-------------------------------|
-------------------------------|
--------7--7------8--8-----8-8-|
--------7--7------8--8-----8-8-|
--0-0-0-7--7-0--0-8--8-0-0-8-8-|


  S S S E  S E  S E  S S S S S  
-------------------------------|
-------------------------------|
-------------------------------|
--------7--7------8--8-----8-8-|
--------7--7------8--8-----8-8-|
--0-0-0-7--7-0--0-8--8-0-0-8-8-|


  S S S E  S E  S E  S S S S S  
-------------------------------|
-------------------------------|
-------------------------------|
--------7--7------8--8-----8-8-|
--------7--7------8--8-----8-8-|
--0-0-0-7--7-0--0-8--8-0-0-8-8-|


  <                                      
  W                   W                  
-------------------|-------------------||
-------------------|-------------------||
-------------------|-------------------||
-------------------|-------------------||
-------------------|-------------------||
--0----------------|--L----------------||




Duration Legend
---------------
W - whole
H - half
Q - quarter
E - 8th
S - 16th
T - 32nd
X - 64th
. - note dotted
|-n-|  - n-tuplets


Tablature Legend
----------------
L - tied note
x - dead note
g - grace note
(n) - ghost note
> - accentuded note
NH - natural harmonic
AH - artificial harmonic
TH - tapped harmonic
SH - semi harmonic
PH - pitch harmonic
h - hammer on
p - pull off
b - bend
br - bendRelease
pb - preBend
pbr - preBendRelease
brb - bendReleaseBend
\n/ - tremolo bar dip
\n - tremolo bar dive
-/n - tremolo bar Release up
/n\ - tremolo bar inverted dip
/n - tremolo bar return
-\n - tremolo bar Release down
S - shift slide
s - legato slide
/ -  slide into from below or out of upwards
\ -  slide into from above or out of downwards
~ - vibrato
W - wide vibrato
tr - trill
TP - tremolo picking
T - tapping
S - slap
P - pop
< - fade in
^ - brush up
v - brush down


Notethis: Bridge Guitar 1 and Bridge guitar 2 are paraller with each other!!
Tap to rate this tab
# A B C D E F G H I J K L M N O P Q R S T U V W X Y Z