Song name
# A B C D E F G H I J K L M N O P Q R S T U V W X Y Z

Godsmack - Spiral tab

Spiral
-------

song-  Spiral
band-  Godsmack
album- Awake
year-  2000

Drop C (C G C F A D)


Intro    gtrs 1 & 2

|-------------------------|-----------------------| ---
|-------------------------|-----------------------|  |
|-------------------------|-----------------------|  |
|-------------------------|-----------------------|  |
|----------------------0--|-----------------------|  |
|0--15--0-0--13--12-0-----|0--15--0-0--13--12--0--|  |
                                                     2x
|-------------------------|-----------------------|  |
|-------------------------|-----------------------|  |
|-------------------------|-----------------------|  |
|-------------------------|-----------------------|  |
|----------------------0--|-----------------------|  |
|0--15--0-0--13--12-0-----|0--15--0-0--13--12-----| ---


Verse 1

|-------------------------|-----------------------| ---
|-------------------------|-----------------------|  |
|-------------------------|-----------------------|  |
|-------------------------|-----------------------|  |
|----------------------0--|-----------------------|  |
|0--15--0-0--13--12-0-----|0--15--0-0--13--12--0--|  |
                                                     4x
|-------------------------|-----------------------|  |
|-------------------------|-----------------------|  |
|-------------------------|-----------------------|  |
|-------------------------|-----------------------|  |
|----------------------0--|-----------------------|  |
|0--15--0-0--13--12-0-----|0--15--0-0--13--12-----| ---


Chorus 1
 
                        /--------2x---------\

|----------------------|---------------------|
|----------------------|---------------------|
|----------------------|---------------------|
|5--5-5-5--0--1-1-1--3-|---10-------8--7-----|
|5--5-5-5--0--1-1-1--3-|0---8--0-0--6--5--6--|
|5--5-5-5--0--1-1-1--3-|0------0-0--------6--|

                        /--------3x---------\

|----------------------|---------------------|------------------|
|----------------------|---------------------|------------------|
|----------------------|---------------------|------------------|
|5--5-5-5--8--8-8-8--3-|---10-------8--7-----|---10-------8--7--|
|5--5-5-5--8--8-8-8--3-|0---8--0-0--6--5--6--|0---8--0-0--6--5--|
|5--5-5-5--8--8-8-8--3-|0------0-0--------6--|0------0-0--------|


Interlude

|-------------------------|-----------------------| ---
|-------------------------|-----------------------|  |
|-------------------------|-----------------------|  |
|-------------------------|-----------------------|  |
|----------------------0--|-----------------------|  |
|0--15--0-0--13--12-0-----|0--15--0-0--13--12--0--|  |
                                                     2x
|-------------------------|-----------------------|  |
|-------------------------|-----------------------|  |
|-------------------------|-----------------------|  |
|-------------------------|-----------------------|  |
|----------------------0--|-----------------------|  |
|0--15--0-0--13--12-0-----|0--15--0-0--13--12-----| ---


Verse 2

|-------------------------|-----------------------| ---
|-------------------------|-----------------------|  |
|-------------------------|-----------------------|  |
|-------------------------|-----------------------|  |
|----------------------0--|-----------------------|  |
|0--15--0-0--13--12-0-----|0--15--0-0--13--12--0--|  |
                                                     4x
|-------------------------|-----------------------|  |
|-------------------------|-----------------------|  |
|-------------------------|-----------------------|  |
|-------------------------|-----------------------|  |
|----------------------0--|-----------------------|  |
|0--15--0-0--13--12-0-----|0--15--0-0--13--12-----| ---


Chorus 2
 
                        /--------2x---------\

|----------------------|---------------------|
|----------------------|---------------------|
|----------------------|---------------------|
|5--5-5-5--0--1-1-1--3-|---10-------8--7-----|
|5--5-5-5--0--1-1-1--3-|0---8--0-0--6--5--6--|
|5--5-5-5--0--1-1-1--3-|0------0-0--------6--|

                        /--------3x---------\

|----------------------|---------------------|------------------|
|----------------------|---------------------|------------------|
|----------------------|---------------------|------------------|
|5--5-5-5--8--8-8-8--3-|---10-------8--7-----|---10-------8--7--|
|5--5-5-5--8--8-8-8--3-|0---8--0-0--6--5--6--|0---8--0-0--6--5--|
|5--5-5-5--8--8-8-8--3-|0------0-0--------6--|0------0-0--------|

 /--------3x---------\

|---------------------|------------------|
|---------------------|------------------|
|---------------------|------------------|
|---10-------8--7-----|---10-------8--7--|
|0---8--0-0--6--5--6--|0---8--0-0--6--5--|
|0------0-0--------6--|0------0-0--------|


Interlude    gtr 1 (Rythm)

|-------------------------|-----------------------| ---
|-------------------------|-----------------------|  |
|-------------------------|-----------------------|  |
|-------------------------|-----------------------|  |
|----------------------0--|-----------------------|  |
|0--15--0-0--13--12-0-----|0--15--0-0--13--12--0--|  |
                                                     4x
|-------------------------|-----------------------|  |
|-------------------------|-----------------------|  |
|-------------------------|-----------------------|  |
|-------------------------|-----------------------|  |
|----------------------0--|-----------------------|  |
|0--15--0-0--13--12-0-----|0--15--0-0--13--12-----| ---


gtr 2 (Solo)

|-----------------------------------------------------------| ---
|---10---11-10h11p10--------10---13-10h11p10-------10-------|  |
|--------------------12----------------------12-------------|  |
|-0----0------------------0----0-----------------0----0-----|  |
|-----------------------------------------------------------|  |
|-----------------------------------------------------------|  |
                                                               4x
|-----------------------------------------------------------|  |
|-----------------------------------------------------------|  |
|---10-9h10p9----9------------------------------------------|  |
|-------------12---12---0--10/12----------------------------|  |
|-----------------------------------------------------------|  |
|-----------------------------------------------------------| ---


Chorus 3   gtrs 1 & 2

 
                        /--------2x---------\

|----------------------|---------------------|
|----------------------|---------------------|
|----------------------|---------------------|
|5--5-5-5--0--1-1-1--3-|---10-------8--7-----|
|5--5-5-5--0--1-1-1--3-|0---8--0-0--6--5--6--|
|5--5-5-5--0--1-1-1--3-|0------0-0--------6--|

                        /--------3x---------\

|----------------------|---------------------|------------------|
|----------------------|---------------------|------------------|
|----------------------|---------------------|------------------|
|5--5-5-5--8--8-8-8--3-|---10-------8--7-----|---10-------8--7--|
|5--5-5-5--8--8-8-8--3-|0---8--0-0--6--5--6--|0---8--0-0--6--5--|
|5--5-5-5--8--8-8-8--3-|0------0-0--------6--|0------0-0--------|

 /--------3x---------\

|---------------------|------------------|
|---------------------|------------------|
|---------------------|------------------|
|---10-------8--7-----|---10-------8--7--|
|0---8--0-0--6--5--6--|0---8--0-0--6--5--|
|0------0-0--------6--|0------0-0--------|



Interlude   gtr 1

|-------------------------|-----------------------| ---
|-------------------------|-----------------------|  |
|-------------------------|-----------------------|  |
|-------------------------|-----------------------|  |
|----------------------0--|-----------------------|  |
|0--15--0-0--13--12-0-----|0--15--0-0--13--12--0--|  |
                                                     til fade out
|-------------------------|-----------------------|  |
|-------------------------|-----------------------|  |
|-------------------------|-----------------------|  |
|-------------------------|-----------------------|  |
|----------------------0--|-----------------------|  |
|0--15--0-0--13--12-0-----|0--15--0-0--13--12-----| ---

on 2nd time gtr 2 comes in:


gtr 2

|-----------------------------------------------------------| ---
|---10---11-10h11p10--------10---13-10h11p10-------10-------|  |
|--------------------12----------------------12-------------|  |
|-0----0------------------0----0-----------------0----0-----|  |
|-----------------------------------------------------------|  |
|-----------------------------------------------------------|  |
                                                               til fade out
|-----------------------------------------------------------|  |
|-----------------------------------------------------------|  |
|---10-9h10p9----9------------------------------------------|  |
|-------------12---12---0--10/12----------------------------|  |
|-----------------------------------------------------------|  |
|-----------------------------------------------------------| ---


Outro (synth. arr. for gtr)

 /---------------3x-----------------\ 

|15--18--16-15--|15--18--16--15--13--|
|---------------|--------------------|
|---------------|--------------------|
|---------------|--------------------|
|---------------|--------------------|
|---------------|--------------------|

|15--18--16-15--|15--18--16--15--13--13h15-|
|---------------|--------------------------|
|---------------|--------------------------|
|---------------|--------------------------|
|---------------|--------------------------|
|---------------|--------------------------|


Tab Legend
-----------

h       hammer on
p       pull off
/       slide up
\       slide down


Well there ya go hope its good! Please Rate!









Tap to rate this tab
 
# A B C D E F G H I J K L M N O P Q R S T U V W X Y Z