Guitaretab - guitar tabs
Song name
# A B C D E F G H I J K L M N O P Q R S T U V W X Y Z

Godsmack - Asleep tab

Everywhere I've seen this song it is wrong. People need to learn how to listen. I've 
done a tab before and even I can tell they are wrong. This is in drop C tuning, but in 
it goes like this:

 Intro:
         C5                              G#5
e-----------------------------------------------------------|
B-----------------------------------------------------------|
G-------------5---------------------------------------------|
D------5--x--------5-----5---------------------6------------|
A---3-----------------3---------------------6---------------|
E---------------------------------------4-------------------|
[ Tab from: http://www.guitaretab.com/g/godsmack/130867.html ]
        C5                         G#5           F5
e-----------------------------------------------------------|
B-----------------------------------------------------------|
G-------------5---------------------------------------------|
D------5--x--------5-----5--------------6-------------3-----|
A---3-----------------3-------------6-----------3--------3--|
E-------------------------------4------------1--------------|

 Verse:

        C5                                  G#5
e-----------------------------------------------------------|
B-----------------------------------------------------------|
G-------------5---------------------------------------------|
D------5--x--------5-----5---------------------6------------|
A---3-----------------3---------------------6---------------|
E---------------------------------------4-------------------|


Chorus:
       Cadd9     C  C7             G#5             F5

e-------------0--0-----------------------------------------------|
B-------------3--1-----------------------------------------------|
G--------0----0--0--3--0-----------------------------------------|
D-----2---------------------------------6---------------3--------|
A--3--------------------------------6----------------3------3----|
E-------------------------------4---------------1----------------|
Related for Asleep tab
Asleep chords by Godsmack