Song name
# A B C D E F G H I J K L M N O P Q R S T U V W X Y Z

Godsmack - Hollow tab

hollow (low to high) EbAbDbGbBbEb        h=hammer on
                                           i dont no if this the right order by the 2nd 
you
                                      play the chorus i got lazy its the same tab but i just
intro (acous)                         didnt really try putting it in order sorry
-----0---0-0-0-----0-0-0-----0-0-0-----0-|
-1-3-0---0-0-0-----0-0-0-----0-0-0-1-3-0-|
-0-0-0---0-0-0-----0-0-0-----0-0-0-0-0-0-|
-2-0-2-2-2-2-2-2-2-2-2-2-2-2-2-2-2-2-0-2-|
-3-0-2-2-2-----2-2-------2-2-------3-0-2-|
-----0-0-0-----0-0-------0-0-----------0-|

intro 2 (acous)
----0-0-0-----0-0-0-----0-0-0-----0-|
----0-0-0-----0-0-0-----0-0-0-1-3-0-|
----0-0-0-----0-0-0-----0-0-0-0-0-0-|
--2-2-2-2-2-2-2-2-2-2-2-2-2-2-2-0-2-|
--2-2-----2-2-------2-2-------3-0-2-|
--0-0-----0-0-------0-0-----------0-|

intro 2 cont (acous)
----0-0-0-----0-0-0-----0-0-0-----0-|
----0-0-0-----0-0-0-----0-0-0-1-3-0-|
----0-0-0-----0-0-0-----0-0-0-0-0-0-|
--2-2-2-2-2-2-2-2-2-2-2-2-2-2-2-0-2-|
--2-2-----2-2-------2-2-------3-0-2-|
--0-0-----0-0-------0-0-----------0-|

intro 2 cont (acous)
----0-0-0-----0-0-0-----0-0-0-----0-|
----0-0-0-----0-0-0-----0-0-0-1-3-0-|
----0-0-0-----0-0-0-----0-0-0-0-0-0-|
--2-2-2-2-2-2-2-2-2-2-2-2-2-2-2-0-2-|
--2-2-----2-2-------2-2-------3-0-2-|
--0-0-----0-0-------0-0-----------0-|

intro 2 cont (acous)
----0-0-0-----0-0-0-----0-0-0-----0-|
----0-0-0-----0-0-0-----0-0-0-1-3-0-|
----0-0-0-----0-0-0-----0-0-0-0-0-0-|
--2-2-2-2-2-2-2-2-2-2-2-2-2-2-2-0-2-|
--2-2-----2-2-------2-2-------3-0-2-|
--0-0-----0-0-------0-0-----------0-|

verse (acous) 3x
----0-0-0-----0-0-0-----0-0-0-----0-|
----0-0-0-----0-0-0-----0-0-0-1-3-0-|
----0-0-0-----0-0-0-----0-0-0-0-0-0-|
--2-2-2-2-2-2-2-2-2-2-2-2-2-2-2-0-2-|
--2-2-----2-2-------2-2-------3-0-2-|
--0-0-----0-0-------0-0-----------0-|

verse 2 (acous)
-----0-0-0-----0---0-0-0-------0-0-0-0-0-0-0--------0-0-----0---------|
-----0-0-0-1-3-3---3-3-3-------3-3-3-3-3-3-3--------3-3-----3-3-3-3-0-|
-----0-0-0-0-0-0-0-0-0-0-----0-0-0-0-0-0-0-0--------0-0-0---0-0-0-0-0-|
-2-2-2-2-2-2-0-2-2-2-----0h2-2-2-----2-2-2-2------------0h2---0-0-0-2-|
-2-2-------3-0-3-3-3-----0h3-3-------------3------------0h3---0-----2-|
-0-0----------------------------------------------------------------0-|
go ro stay         same old picture feels so hollow                 and

verse (acous) 3x
----0-0-0-----0-0-0-----0-0-0-----0-|
----0-0-0-----0-0-0-----0-0-0-1-3-0-|
----0-0-0-----0-0-0-----0-0-0-0-0-0-|
--2-2-2-2-2-2-2-2-2-2-2-2-2-2-2-0-2-|
--2-2-----2-2-------2-2-------3-0-2-|
--0-0-----0-0-------0-0-----------0-|

verse cont (acous)-
-3-3-3-3-3-3-3-3-3-3-3-3-3-3-3-3-|
-3-3-3-3-3-3-3-3-3-3-3-3-3-3-3-3-|
-0-0-0-0-0-0-0-0-0-0-0-0-0-0-0-0-|
-2-2-2-2-2-2-2-2-2-2-2-2-2-2-2-2-|
-3-3-3-3-3-3-3-3-3-3-3-3-3-3-3-3-|
---------------------------------|

verse 3 (acous)
-----0-0-0-------------0-|
---3-3-3-3-------3-3-3-0-|
-0-0-0-0-0-0---0-0-0-0-6-|
-2-2-2-----0h2-2-0-0-0-7-|
-3---------0h3-3-0-0-0-7-|
-----------------------5-|

chorus (acous) (figure out the strumming part)
-(0)-0-0-0-0-0-0-0-0-0-0-0-0-0-0-0-0-0-0--0--0-(0)-0-0-0-0-0-0-0-0-0-0-0-0-0-0-0-0-0-0-0-0-|
-(0)-0-0-0-0-0-0-0-0-0-0-0-0-0-0-0-0-0-0--0--0-(0)-0-0-0-0-0-0-0-0-0-0-0-0-0-0-0-0-0-0-0-0-|
-(6)-6-6-6-6-6-6-6-6-6-6-6-6-6-6-6-6-6-6--4--2-(2)-2-2-2-2-2-2-2-2-2-2-2-2-2-2-2-2-2-2-2-2-|
-(7)-7-7-7-7-7-7-7-7-7-7-7-7-7-7-7-7-7-7--5--3-(3)-3-3-3-3-3-3-3-3-3-3-3-3-3-3-3-3-3-3-3-3-|
-(7)-7-7-7-7-7-7-7-7-7-7-7-7-7-7-7-7-7-7--5--3-(3)-3-3-3-3-3-3-3-3-3-3-3-3-3-3-3-3-3-3-3-3-|
-(5)-5-5-5-5-5-5-5-5-5-5-5-5-5-5-5-5-5-5--3--1-(1)-1-1-1-1-1-1-1-1-1-1-1-1-1-1-1-1-1-1-1-1-|

chorus cont (acous)
-0-0-0-0-0-(0)-0-0-0-0-0-0-0-0-0-0-0-0-0-0-0-0-0-0-0-0-0-0-(0)-0-0-0-0-0-0-0-0-0-0-0-0-0-0-0-0-|
-0-0-0-0-0-(0)-0-0-0-0-0-0-0-0-0-0-0-0-0-0-0-0-0-0-0-0-0-0-(0)-0-0-0-0-0-0-0-0-0-0-0-0-0-0-0-0-|
-4-4-4-4-6-(6)-6-6-6-6-6-6-6-6-6-6-6-6-6-6-6-6-6-6-6-2-2-2-(2)-2-2-2-2-2-2-2-2-2-2-2-2-2-2-2-2-|
-5-5-5-5-7-(7)-7-7-7-7-7-7-7-7-7-7-7-7-7-7-7-7-7-7-7-3-3-3-(3)-3-3-3-3-3-3-3-3-3-3-3-3-3-3-3-3-|
-5-5-5-5-7-(7)-7-7-7-7-7-7-7-7-7-7-7-7-7-7-7-7-7-7-7-3-3-3-(3)-3-3-3-3-3-3-3-3-3-3-3-3-3-3-3-3-|
-3-3-3-3-5-(5)-5-5-5-5-5-5-5-5-5-5-5-5-5-5-5-5-5-5-5-1-1-1-(1)-1-1-1-1-1-1-1-1-1-1-1-1-1-1-1-1-|

chorus cont (acous)
-0-0-0-0-0-0-0-0-0-0-(0)-0-0-0-0-0-0-0-0-0-(0)-0-0-0-0-0-0-0-0-0-0-0-(0)-0-0-0-0-0-0-0-0-0-0-(0)-|
-0-0-0-0-0-0-0-0-0-0-(0)-0-0-0-0-0-0-0-0-0-(0)-0-0-0-0-0-0-0-0-0-0-0-(0)-0-0-0-0-0-0-0-0-0-0-(0)-|
-2-2-2-2-2-2-2-4-4-4-(4)-4-4-4-4-4-4-4-4-2-(2)-2-2-2-2-2-2-4-4-4-4-6-(6)-6-6-6-6-6-6-6-6-6-6-(6)-|
-3-3-3-3-3-3-3-5-5-5-(5)-5-5-5-5-5-5-5-5-3-(3)-3-3-3-3-3-3-5-5-5-5-7-(7)-7-7-7-7-7-7-7-7-7-7-(7)-|
-3-3-3-3-3-3-3-5-5-5-(5)-5-5-5-5-5-5-5-5-3-(3)-3-3-3-3-3-3-5-5-5-5-7-(7)-7-7-7-7-7-7-7-7-7-7-(7)-|
-1-1-1-1-1-1-1-3-3-3-(3)-3-3-3-3-3-3-3-3-1-(1)-1-1-1-1-1-1-3-3-3-3-5-(5)-5-5-5-5-5-5-5-5-5-5-(5)-|

intro (acous)
-----0---0-0-0-----0-0-0-----0-0-0-----0-|
-1-3-0---0-0-0-----0-0-0-----0-0-0-1-3-0-|
-0-0-0---0-0-0-----0-0-0-----0-0-0-0-0-0-|
-2-0-2-2-2-2-2-2-2-2-2-2-2-2-2-2-2-2-0-2-|
-3-0-2-2-2-----2-2-------2-2-------3-0-2-|
-----0-0-0-----0-0-------0-0-----------0-|

intro 2 (acous)
----0-0-0-----0-0-0-----0-0-0-----0-|
----0-0-0-----0-0-0-----0-0-0-1-3-0-|
----0-0-0-----0-0-0-----0-0-0-0-0-0-|
--2-2-2-2-2-2-2-2-2-2-2-2-2-2-2-0-2-|
--2-2-----2-2-------2-2-------3-0-2-|
--0-0-----0-0-------0-0-----------0-|

intro 2 cont (acous)
----0-0-0-----0-0-0-----0-0-0-----0-|
----0-0-0-----0-0-0-----0-0-0-1-3-0-|
----0-0-0-----0-0-0-----0-0-0-0-0-0-|
--2-2-2-2-2-2-2-2-2-2-2-2-2-2-2-0-2-|
--2-2-----2-2-------2-2-------3-0-2-|
--0-0-----0-0-------0-0-----------0-|

intro 2 cont (acous)
----0-0-0-----0-0-0-----0-0-0-----0-|
----0-0-0-----0-0-0-----0-0-0-1-3-0-|
----0-0-0-----0-0-0-----0-0-0-0-0-0-|
--2-2-2-2-2-2-2-2-2-2-2-2-2-2-2-0-2-|
--2-2-----2-2-------2-2-------3-0-2-|
--0-0-----0-0-------0-0-----------0-|

intro 2 cont (acous)
----0-0-0-----0-0-0-----0-0-0-----0-|
----0-0-0-----0-0-0-----0-0-0-1-3-0-|
----0-0-0-----0-0-0-----0-0-0-0-0-0-|
--2-2-2-2-2-2-2-2-2-2-2-2-2-2-2-0-2-|
--2-2-----2-2-------2-2-------3-0-2-|
--0-0-----0-0-------0-0-----------0-|

verse (acous) 3x
----0-0-0-----0-0-0-----0-0-0-----0-|
----0-0-0-----0-0-0-----0-0-0-1-3-0-|
----0-0-0-----0-0-0-----0-0-0-0-0-0-|
--2-2-2-2-2-2-2-2-2-2-2-2-2-2-2-0-2-|
--2-2-----2-2-------2-2-------3-0-2-|
--0-0-----0-0-------0-0-----------0-|

verse 2 (acous)
-----0-0-0-----0---0-0-0-------0-0-0-0-0-0-0--------0-0-----0---------|
-----0-0-0-1-3-3---3-3-3-------3-3-3-3-3-3-3--------3-3-----3-3-3-3-0-|
-----0-0-0-0-0-0-0-0-0-0-----0-0-0-0-0-0-0-0--------0-0-0---0-0-0-0-0-|
-2-2-2-2-2-2-0-2-2-2-----0h2-2-2-----2-2-2-2------------0h2---0-0-0-2-|
-2-2-------3-0-3-3-3-----0h3-3-------------3------------0h3---0-----2-|
-0-0----------------------------------------------------------------0-|

verse (acous) 3x
----0-0-0-----0-0-0-----0-0-0-----0-|
----0-0-0-----0-0-0-----0-0-0-1-3-0-|
----0-0-0-----0-0-0-----0-0-0-0-0-0-|
--2-2-2-2-2-2-2-2-2-2-2-2-2-2-2-0-2-|
--2-2-----2-2-------2-2-------3-0-2-|
--0-0-----0-0-------0-0-----------0-|

verse cont (acous)-
-3-3-3-3-3-3-3-3-3-3-3-3-3-3-3-3-|
-3-3-3-3-3-3-3-3-3-3-3-3-3-3-3-3-|
-0-0-0-0-0-0-0-0-0-0-0-0-0-0-0-0-|
-2-2-2-2-2-2-2-2-2-2-2-2-2-2-2-2-|
-3-3-3-3-3-3-3-3-3-3-3-3-3-3-3-3-|
---------------------------------|

verse 3 (acous)
-----0-0-0-------------0-|
---3-3-3-3-------3-3-3-0-|
-0-0-0-0-0-0---0-0-0-0-6-|
-2-2-2-----0h2-2-0-0-0-7-|
-3---------0h3-3-0-0-0-7-|
-----------------------5-|

chorus (acous) (figure out the strumming part)
-(0)-0-0-0-0-0-0-0-0-0-0-0-0-0-0-0-0-0-0--0--0-(0)-0-0-0-0-0-0-0-0-0-0-0-0-0-0-0-0-0-0-0-0-|
-(0)-0-0-0-0-0-0-0-0-0-0-0-0-0-0-0-0-0-0--0--0-(0)-0-0-0-0-0-0-0-0-0-0-0-0-0-0-0-0-0-0-0-0-|
-(6)-6-6-6-6-6-6-6-6-6-6-6-6-6-6-6-6-6-6--4--2-(2)-2-2-2-2-2-2-2-2-2-2-2-2-2-2-2-2-2-2-2-2-|
-(7)-7-7-7-7-7-7-7-7-7-7-7-7-7-7-7-7-7-7--5--3-(3)-3-3-3-3-3-3-3-3-3-3-3-3-3-3-3-3-3-3-3-3-|
-(7)-7-7-7-7-7-7-7-7-7-7-7-7-7-7-7-7-7-7--5--3-(3)-3-3-3-3-3-3-3-3-3-3-3-3-3-3-3-3-3-3-3-3-|
-(5)-5-5-5-5-5-5-5-5-5-5-5-5-5-5-5-5-5-5--3--1-(1)-1-1-1-1-1-1-1-1-1-1-1-1-1-1-1-1-1-1-1-1-|

chorus cont (acous)
-0-0-0-0-0-(0)-0-0-0-0-0-0-0-0-0-0-0-0-0-0-0-0-0-0-0-0-0-0-(0)-0-0-0-0-0-0-0-0-0-0-0-0-0-0-0-0-|
-0-0-0-0-0-(0)-0-0-0-0-0-0-0-0-0-0-0-0-0-0-0-0-0-0-0-0-0-0-(0)-0-0-0-0-0-0-0-0-0-0-0-0-0-0-0-0-|
-4-4-4-4-6-(6)-6-6-6-6-6-6-6-6-6-6-6-6-6-6-6-6-6-6-6-2-2-2-(2)-2-2-2-2-2-2-2-2-2-2-2-2-2-2-2-2-|
-5-5-5-5-7-(7)-7-7-7-7-7-7-7-7-7-7-7-7-7-7-7-7-7-7-7-3-3-3-(3)-3-3-3-3-3-3-3-3-3-3-3-3-3-3-3-3-|
-5-5-5-5-7-(7)-7-7-7-7-7-7-7-7-7-7-7-7-7-7-7-7-7-7-7-3-3-3-(3)-3-3-3-3-3-3-3-3-3-3-3-3-3-3-3-3-|
-3-3-3-3-5-(5)-5-5-5-5-5-5-5-5-5-5-5-5-5-5-5-5-5-5-5-1-1-1-(1)-1-1-1-1-1-1-1-1-1-1-1-1-1-1-1-1-|

chorus cont (acous)
-0-0-0-0-0-0-0-0-0-0-(0)-0-0-0-0-0-0-0-0-0-(0)-0-0-0-0-0-0-0-0-0-0-0-(0)-0-0-0-0-0-0-0-0-0-0-(0)-|
-0-0-0-0-0-0-0-0-0-0-(0)-0-0-0-0-0-0-0-0-0-(0)-0-0-0-0-0-0-0-0-0-0-0-(0)-0-0-0-0-0-0-0-0-0-0-(0)-|
-2-2-2-2-2-2-2-4-4-4-(4)-4-4-4-4-4-4-4-4-2-(2)-2-2-2-2-2-2-4-4-4-4-6-(6)-6-6-6-6-6-6-6-6-6-6-(6)-|
-3-3-3-3-3-3-3-5-5-5-(5)-5-5-5-5-5-5-5-5-3-(3)-3-3-3-3-3-3-5-5-5-5-7-(7)-7-7-7-7-7-7-7-7-7-7-(7)-|
-3-3-3-3-3-3-3-5-5-5-(5)-5-5-5-5-5-5-5-5-3-(3)-3-3-3-3-3-3-5-5-5-5-7-(7)-7-7-7-7-7-7-7-7-7-7-(7)-|
-1-1-1-1-1-1-1-3-3-3-(3)-3-3-3-3-3-3-3-3-1-(1)-1-1-1-1-1-1-3-3-3-3-5-(5)-5-5-5-5-5-5-5-5-5-5-(5)-|


intro (acous)
-----0---0-0-0-----0-0-0-----0-0-0-----0-|
-1-3-0---0-0-0-----0-0-0-----0-0-0-1-3-0-|
-0-0-0---0-0-0-----0-0-0-----0-0-0-0-0-0-|
-2-0-2-2-2-2-2-2-2-2-2-2-2-2-2-2-2-2-0-2-|
-3-0-2-2-2-----2-2-------2-2-------3-0-2-|
-----0-0-0-----0-0-------0-0-----------0-|

intro 2 (acous)
----0-0-0-----0-0-0-----0-0-0-----0-|
----0-0-0-----0-0-0-----0-0-0-1-3-0-|
----0-0-0-----0-0-0-----0-0-0-0-0-0-|
--2-2-2-2-2-2-2-2-2-2-2-2-2-2-2-0-2-|
--2-2-----2-2-------2-2-------3-0-2-|
--0-0-----0-0-------0-0-----------0-|

intro 2 cont (acous)
----0-0-0-----0-0-0-----0-0-0-----0-|
----0-0-0-----0-0-0-----0-0-0-1-3-0-|
----0-0-0-----0-0-0-----0-0-0-0-0-0-|
--2-2-2-2-2-2-2-2-2-2-2-2-2-2-2-0-2-|
--2-2-----2-2-------2-2-------3-0-2-|
--0-0-----0-0-------0-0-----------0-|

intro 2 cont (acous)
----0-0-0-----0-0-0-----0-0-0-----0-|
----0-0-0-----0-0-0-----0-0-0-1-3-0-|
----0-0-0-----0-0-0-----0-0-0-0-0-0-|
--2-2-2-2-2-2-2-2-2-2-2-2-2-2-2-0-2-|
--2-2-----2-2-------2-2-------3-0-2-|
--0-0-----0-0-------0-0-----------0-|

intro 2 cont (acous)
----0-0-0-----0-0-0-----0-0-0-----0-|
----0-0-0-----0-0-0-----0-0-0-1-3-0-|
----0-0-0-----0-0-0-----0-0-0-0-0-0-|
--2-2-2-2-2-2-2-2-2-2-2-2-2-2-2-0-2-|
--2-2-----2-2-------2-2-------3-0-2-|
--0-0-----0-0-------0-0-----------0-|
                                     fade out
Tap to rate this tab
 
# A B C D E F G H I J K L M N O P Q R S T U V W X Y Z