Song name
# A B C D E F G H I J K L M N O P Q R S T U V W X Y Z

Godsmack - Safe And Sound tab

Godsmack
Safe And Sound
IV
Bonus Track
DADGBE
Easy to play
Played with distorsion and wah-wah

e|---------------------------------------------------------------------------|
B|---------------------------------------------------------------------------|
G|---------------------------------------------------------------------------|
D|---------------------------------------------------------------------------|
A|---------------------------------------------------------------------------|
D|--0--12--0-3-0-1-0--12--0-0-1--0--12--0-3-0-1-0--12--0-0-1-----------------|


e|-----------------------------------------------------------------------------|
B|-----------------------------------------------------------------------------|
G|-----------------------------------------------------------------------------|
D|-----------------------------------------------------------------------------|
A|--0--12--0-3-0-1-0--12--0-0-1--0--12--0-3-0-1-0--12--0-0-1-------------------|
-|
D|--0--12--0-3-0-1-0--12--0-0-1--0--12--0-3-0-1-0--12--0-0-1-----------------|x2


e|---------------|
B|---------------|
G|---------------|
D|---------------|
A|---------------|
D|--0----1-0-----|


e|----------------------------|
B|----------------------------|
G|----------------------------|
D|--5-5-5-5-5-5-1-1-1-3-3-----|
A|--5-5-5-5-5-5-1-1-1-3-3-----|
D|--5-5-5-5-5-5-1-1-1-3-3-----|


e|----------------------------|
B|----------------------------|
G|----------------------------|
D|--5-5-5-5-5-5-8-8-8-1-1-----|
A|--5-5-5-5-5-5-8-8-8-1-1-----|
D|--5-5-5-5-5-5-8-8-8-1-1-----|


e|-----------------------------------------------------------------|
B|-----------------------------------------------------------------|
G|-----------------------------------------------------------------|
D|-----------------------------------------------------------------|
A|-----------------------------------------------------------------|
D|--0-0-15-0-15-0-15-0-0-15-0-0-15-0-0-15-0-15-0-15----------------|


e|-----------------------------------------------------------------|
B|-----------------------------------------------------------------|
G|-----------------------------------------------------------------|
D|-----------------------------------------------------------------|
A|--0-0-15-0-15-0-15-0-0-15-0-0-15-0-0-15-0-15-0-15----------------|
D|--0-0-15-0-15-0-15-0-0-15-0-0-15-0-0-15-0-15-0-15----------------|


|------------------------------------------------------------------------------|
D|--0--12--0-3-0-1-0--12--0-0-1--0--12--0-3-0-1-0--12--0-0-1-------------------|


e|-----------------------------------------------------------------------------|
B|-----------------------------------------------------------------------------|
G|-----------------------------------------------------------------------------|
D|-----------------------------------------------------------------------------|
A|--0--12--0-3-0-1-0--12--0-0-1--0--12--0-3-0-1-0--12--0-0-1-------------------|
-|
D|--0--12--0-3-0-1-0--12--0-0-1--0--12--0-3-0-1-0--12--0-0-1-----------------|x3


|------------------------------------------------------------------------------|
D|--0--12--0-3-0-1-0--12--0-0-1--0--12--0-3-0-1-0--12--0-0-1-------------------|


e|-----------------------------------------------------------------------------|
B|-----------------------------------------------------------------------------|
G|-----------------------------------------------------------------------------|
D|-----------------------------------------------------------------------------|
A|--0--12--0-3-0-1-0--12--0-0-1--0--12--0-3-0-1-0--12--0-0-1-------------------|
-|
D|--0--12--0-3-0-1-0--12--0-0-1--0--12--0-3-0-1-0--12--0-0-1---5-------------|


Listen to the song to know the beat and when to play parts.
If any questions, ask me on bhic4@hotmail.com
Enjoy!
Tap to rate this tab
# A B C D E F G H I J K L M N O P Q R S T U V W X Y Z