Song name
# A B C D E F G H I J K L M N O P Q R S T U V W X Y Z

Godsmack - Mama tab

Help us improve GuitareTab! Take a short survey!
it took me since i had the the cd to make this song its not hard but i wanted it to be 
this has to be 100% correct if not email me at suicidalassn@yahoo.com

(low to high) DADGBE            ^-bend             /-slide up
                                h-hammer on        \-slide down
intro                           p-pull off         p.s-pick scrape
clean 2x                        *-palm mute        t-trem pick
-----------------------------------|
-----------------------------------|
---------------------------------0-|
---2---2---3---2---2-0---2---2-----|
-0---0---0---0---0---0-3---3---3---|
-----------------------------------|

intro solo

---------------------------------------------------------------------------------3-5-|
-------------------------------------8-\-----8-10-8-10^(10)--8-10-8-(8)-\-3-3-/5-----|
-7^(7)-5-------5----5-5-7-5h7-7-/-9-(9)--/-9-----------------------------------------|
---------7-5h7----7------------------------------------------------------------------|
-------------------------------------------------------------------------------------|
-------------------------------------------------------------------------------------|


verse
clean
-----------------------------------|--------------------------------------------------|
-----------------------------------|--------------------------------------------------|
---------------------------------0-|--------------------------------------0---2p0-----|
---2---2---3---2---2-0---2---2-----|----2---2---3---2---2-0---2---2-----0---0-----0---|
-0---0---0---0---0---0-3---3---3---|--0---0---0---0---0---0-3---3---0---------------0-|
-----------------------------------|----------------------------------5---------------|

verse continue
clean
--------------------------------------------------------------------------|
--------------------------------------------------------------------------|
--------------------------------0---------------------------------------0-|
---2---2---3---2---2-0---2---2-----x-x----2---2---3---2---2-0---2---2-----|
-0---0---0---0---0---0-3---3---3---x-x--0---0---0---0---0---0-3---3---3---|
-----------------------------------x-x------------------------------------|


pre-chorus
dist
-----------------------------------------------------------|
-----------------------------------------------------------|
-----------------------------------------------------------|
------2--2-3-3-2--2-0-0-0-2-2-3-3--3-3-3-3-3-5-5-5-5-5-5-0-|
------2--2-3-3-2--2-0-0-0-2-2-3-3--3-3-3-3-3-5-5-5-5-5-5-0-|
-12-\-2--2-3-3-2--2-0-0-0-2-2-3-3--3-3-3-3-3-5-5-5-5-5-5-0-|
           * *
pre-chorus continue
-------------------------------------------------------|
-------------------------------------------------------|
-------------------------------------------------------|
--2--2-2-2-2--2-0-0-0-2-2-3-3--3-3-3-3-3-5-5-5-5-5-5-0-|
--2--2-2-2-2--2-0-0-0-2-2-3-3--3-3-3-3-3-5-5-5-5-5-5-0-|
--2--2-2-2-2--2-0-0-0-2-2-3-3--3-3-3-3-3-5-5-5-5-5-5-0-|
       * *

chorus
dist
-------------------------------------------------------|
-------------------------------------------------------|
-2-2-2-2-----2-2-2-2-----2-5-5-5-5-/-10-10-10-10-9-9---|
-2-2-2-2-----2-2-2-2-----2-5-5-5-5----x--x--x--x-x-x-0-|
-0-0-0-0-3p0-0-0-0-0-3p0-0-3-3-3-3-/--8--8--8--8-7-7-0-|
-------------------------------------------------------|

chorus continue
dist
-------------------------------------------------------|
-------------------------------------------------------|
-2-2-2-2-----2-2-2-2-----2-5-5-5-5---------------------|
-2-2-2-2-----2-2-2-2-----2-5-5-5-5---3-3-3-3-2-2p0-----|
-0-0-0-0-3p0-0-0-0-0-3p0-0-3-3-3-3---3-3-3-3-2-2p0-----|
-------------------------------------3-3-3-3-2-2p0-----|


chorus continue
dist
-------------------------------------------------------|
-------------------------------------------------------|
-2-2-2-2-----2-2-2-2-----2-5-5-5-5-/-10-10-10-10-9-9---|
-2-2-2-2-----2-2-2-2-----2-5-5-5-5----x--x--x--x-x-x-0-|
-0-0-0-0-3p0-0-0-0-0-3p0-0-3-3-3-3-/--8--8--8--8-7-7-0-|
-------------------------------------------------------|

chorus continue dist
-----------------------------|
-----------------------------|
-2-2-2-2-----2-2-2-2-----2---|
-2-2-2-2-----2-2-2-2-----2---|
-0-0-0-0-3p0-0-0-0-0-3p0-0-0-|
---------------------------0-|

solo 2
------5----5-5--------------------------------------------------------|
-5-8-----------8--6-5--5-8--------------------------------------------|
---------------------------7-/-9-7-5----------------------------5-----|
-------------------------------------7-5---5h7-5-----5---7p5------7p5-|
-----------------------------------------7-------5h7---7-----7--------|
----------------------------------------------------------------------|

verse
pre-chorus
chorus

bridge
dist
----------------------------------------------------------|
----------------------------------------------------------|
--------------------------------------8---------8-8-8-----|
-0-0-0-0-0-0-0-0-0--0-0-0-0-0-0-0-0-0-7---7---7-7-7=7-----|
-0-0-0-0-0-0-0-0-0--0-0-0-0-0-0-0-0-0-6-6---6---6-6-6-----|
-0-0-0-0-0-0-0-0-0--0-0-0-0-0-0-0-0-0-----------------12\-|
   * * * * * * *      * * * * * *   *

bridge continue
----------------------------------------------------------------|
----------------------------------------------------------------|
--------------------------------------8-8-8-8-8-8-8-8-8---------|
-0-0-0-0-0-0-0-0-0--0-0-0-0-0-0-0-0-0-7-7-7-7-7-7-7-7=7---------|
-0-0-0-0-0-0-0-0-0--0-0-0-0-0-0-0-0-0-6-6-6-6-6-6-6-6-6---------|
-0-0-0-0-0-0-0-0-0--0-0-0-0-0-0-0-0-0-------------------0-12\---|
   * * * * * * *      * * * * * *   *

bridge continue
----------------------------------------------------------|
----------------------------------------------------------|
--------------------------------------8---------8-8-8-----|
-0-0-0-0-0-0-0-0-0--0-0-0-0-0-0-0-0-0-7---7---7-7-7=7-----|
-0-0-0-0-0-0-0-0-0--0-0-0-0-0-0-0-0-0-6-6---6---6-6-6-----|
-0-0-0-0-0-0-0-0-0--0-0-0-0-0-0-0-0-0-----------------12\-|
   * * * * * * *      * * * * * *   *

bridge continue
-----------------------------------------------|
-----------------------------------------------|
--------------------------------------8--(8)-\-|
-0-0-0-0-0-0-0-0-0--0-0-0-0-0-0-0-0---7--(7)-\-|
-0-0-0-0-0-0-0-0-0--0-0-0-0-0-0-0-0---6--(6)-\-|
-0-0-0-0-0-0-0-0-0--0-0-0-0-0-0-0-0-0----------|
   * * * * * * *      * * * * * *   *

solo
dist
------------------------------------------------------------|
-------------8----------------------------------------------|
-7^-(7)p5-7^---7^-(7)p5-7p5-------5-------------------------|
----------------------------7-5h7---7p5---5---5-5-5h7-(7)-\-|
----------------------------------------7---7---------------|
------------------------------------------------------------|

solo continue
---------------------------------------------------------------|
---------------------------------------------------------------|
-0-4---4---4-5p4---4---4-5p4---4---4-5p4-----------5-5---------|
-----7---7-------7---7-------7---7-------5-----5-------7-(7)-\-|
-------------------------------------------5h7---7-------------|
---------------------------------------------------------------|


solo continue
-0---0---0---0---0---0---0---0---0---0---0--0---0-----0---0---0---0---0---|
--------------------------------------------------------------------------|
---2---4---5---4---2---2---4---5---4---2---2--4---/-9---7---5---4---5---7-|
--------------------------------------------------------------------------|
--------------------------------------------------------------------------|
--------------------------------------------------------------------------|

solo continue
----------------|
----------------|
-(7)p5----------|
-------7p5-7\-x-|
--------------x-|
----------------|
             p.s

solo 2
w/wah-wah
-------------------------|-------------------------------------------------|
-x-0-15^--15-15-15-15-15-|-15^-15^-(15)p13-15-15-15-13-15^-15^-------------|
-x-0---------------------|-------------------------------------14-14p12----|
-x-----------------------|----------------------------------------------15-|
-------------------------|-------------------------------------------------|
-------------------------|-------------------------------------------------|
     hold bend

solo 2 continue
w/wah-wah
----------------13^-------------------------------------------------------|
--------------0----15^-(15)-13----13-15^--13-13---------------------------|
-14-13-(13)-\-0----------------14----------------14-14-12----12----12h14--|
----------------------------------------------------------14----14--------|
--------------------------------------------------------------------------|
--------------------------------------------------------------------------|

chorus 2x
bridge

outro solo
w/wah-wah
----------------------------------------------------------------------------------|
--------------------10------------------------10----------------10----------------|
-12^(12)p10----12^-----13-13-12-12-12h13p12------13p12h13p12h13----13p12h13p12p10-|
------------12------------------------------13------------------------------------|
----------------------------------------------------------------------------------|
----------------------------------------------------------------------------------|

outro solo continue
w/wah-wah
--------------------------------------10-------------10----10-----10-10-------|
---10-----10h13p10-----10h13p10----10----13p10----------13----13^-------13p10-|
------12^----------12^----------12-------------13-12--------------------------|
-12---------------------------------------------------------------------------|
------------------------------------------------------------------------------|
------------------------------------------------------------------------------|

outro solo continue
w/wah-wah
-----------------------------------------------------------------------------------|
-13^-10-13^-(13)-10-----10h13-10---------------------------------------------------|
--------------------12^----------13-13p12h13p12p10----12^-12-12-12-12-12--(12)p10--|
---------------------------------------------------12------------------------------|
-----------------------------------------------------------------------------------|
-----------------------------------------------------------------------------------|
                                                    hold bend----------------------|


outro solo continue
w/wah-wah
--------------------------------------10-------------------------------------------|
-----------------------------10h13p10----15p10----15p10------------13----13-/-(17)-|
-12p10h12-12p10h12-12p10h12^-------------------12-------12--7-/-14----14-----------|
-----------------------------------------------------------------------------------|
-----------------------------------------------------------------------------------|
-----------------------------------------------------------------------------------|


outro solo continue
w/wah-wah
----13----13----13----13----13----13----13----13----13-----13-|
-17----17----17----17----17----17----17----17----17----17-----|
--------------------------------------------------------------|
--------------------------------------------------------------|
--------------------------------------------------------------|
--------------------------------------------------------------|
                                                            t


outro solo continue
w/wah-wah
-15^-(15)-13----13-15^-(15)-13----13-15^-(15)-13----13-15^-(15)-13----13-15^-(15)-13-|
-------------15----------------15----------------15----------------15----------------|
-------------------------------------------------------------------------------------|
-------------------------------------------------------------------------------------|
-------------------------------------------------------------------------------------|
-------------------------------------------------------------------------------------|


outro solo continue
----15^-(15)-15^-15^-15^-15^-15^-15^-15^-(15)-(15)p13----------------------------|
-15---------------------------------------------------13h15p13----13h15p13----13-|
---------------------------------------------------------------14----------14----|
---------------------------------------------------------------------------------|
---------------------------------------------------------------------------------|
---------------------------------------------------------------------------------|

outro solo continue
w/wah-wah
-----------------------------------------|
----------13-----------------------------|
-14-12h14----14-12h14--13p12-10-13p12p10-|
-----------------------------------------|
-----------------------------------------|
-----------------------------------------|
                                       fade out
Related for Mama tab