Song name
# A B C D E F G H I J K L M N O P Q R S T U V W X Y Z

Godsmack - Whiskey Hangover tab

Godsmack-Whiskey Hangover
Guitar Tab
Drop C Tuning (C, G, C, F, A, D)
Tabbed By Ryan Ryngaert
Please Rate Or Comment

Intro                    x4       hold
D-------------------------------|---|
A-------------------------------|---|
F-9-11-9-9-9-11-9-11-9-10-10-10-|-9-|
C-9-11-9-9-9-11-9-11-9-10-10-10-|-9-|
G-7-9--7-7-7-9--7-9--7-8--8--8--|-7-|
C-------------------------------|---|

Verse        x3
D-----------------|
A-----------------|
F-----------------|
C------10-10-10-9-|(hold)
G------8--8--8--7-|(hold)
C-----------------|

Chorus                    x4       hold
D-------------------------------|---|
A-------------------------------|---|
F-9-11-9-9-9-11-9-11-9-10-10-10-|-9-|
C-9-11-9-9-9-11-9-11-9-10-10-10-|-9-|
G-7-9--7-7-7-9--7-9--7-8--8--8--|-7-|
C-------------------------------|---|

Verse        x3
D-----------------|
A-----------------|
F-----------------|
C------10-10-10-9-|(hold)
G------8--8--8--7-|(hold)
C-----------------|

Pre-Chorus                      x1
D---------------------------------|
A---------------------------------|
F---------------------------------|
C-7-7-7-7-7-7-7-7-5-5-5-5-5-5-5-5-|
G-5-5-5-5-5-5-5-5-3-3-3-3-3-3-3-3-|
C---------------------------------|

D-------------------------------|
A-------------------------------|
F-9-11-9-9-9-11-9-11-9-10-10-10-|
C-9-11-9-9-9-11-9-11-9-10-10-10-|
G-7-9--7-7-7-9--7-9--7-8--8--8--|
C-------------------------------|

D---------------------------------|
A---------------------------------|
F---------------------------------|
C-7-7-7-7-7-7-7-7-5-5-5-5-5-5-5-5-|
G-5-5-5-5-5-5-5-5-3-3-3-3-3-3-3-3-|
C---------------------------------|

Chorus (play twice)         x4    hold
D-------------------------------|---|
A-------------------------------|---|
F-9-11-9-9-9-11-9-11-9-10-10-10-|-9-|
C-9-11-9-9-9-11-9-11-9-10-10-10-|-9-|
G-7-9--7-7-7-9--7-9--7-8--8--8--|-7-|
C-------------------------------|---|

Bridge
Weird guitar part at the beginning

D--------------------------------------------------|
A--------------------------------------------------|
F--------------------------------------------------|
C-9-9-7-9-12-7-9-9-7-9-12-7-9-9-7-9-12-7-5-12-11-9-|
G-7-7-5-7-10-5-7-7-5-7-10-5-7-7-5-7-10-5-3-10-9--7-|
C--------------------------------------------------|

D---------------------------------|
A---------------------------------|
F---------------------------------|
C-7-7-7-7-7-7-7-7-5-5-5-5-5-5-5-5-|
G-5-5-5-5-5-5-5-5-3-3-3-3-3-3-3-3-|
C---------------------------------|

Chorus (play twice)         x4    hold
D-------------------------------|---|
A-------------------------------|---|
F-9-11-9-9-9-11-9-11-9-10-10-10-|-9-|
C-9-11-9-9-9-11-9-11-9-10-10-10-|-9-|
G-7-9--7-7-7-9--7-9--7-8--8--8--|-7-|
C-------------------------------|---|

Ending                      x4    hold
D-------------------------------|---|
A-------------------------------|---|
F-9-11-9-9-9-11-9-11-9-10-10-10-|-9-|
C-9-11-9-9-9-11-9-11-9-10-10-10-|-9-|
G-7-9--7-7-7-9--7-9--7-8--8--8--|-7-|
C-------------------------------|---|

Well, that's most of the song. I know I missed a few parts, but once you get the feel 
the song, you can simply just fill them in. Please rate or comment.
Tap to rate this tab
# A B C D E F G H I J K L M N O P Q R S T U V W X Y Z