Song name
# A B C D E F G H I J K L M N O P Q R S T U V W X Y Z

Godsmack - Whiskey Hangover tab

*Note: This tab is incomplete. Feel free to use what I have and finish this tab. :)

 -INTRO-
E|---------------------------------------------------|  (x4)
B|---------------------------------------------------|
G|---------------------------------------------------|
D|---0--12--0--0--0--15--0--0--12--0--0--13--13--13--|
A|---0--12--0--0--0--15--0--0--12--0--0--13--13--13--|
D|---0--12--0--0--0--15--0--0--12--0--0--13--13--13--|


(End The Chorus/Intro With This Also)
E|-----------------------------------|  (x4)
B|-----------------------------------|
G|-----------------------------------|
D|---13--13--13--12~~~~~~------------|
A|---13--13--13--12~~~~~~------------|
D|---13--13--13--12~~~~~~------------|

 -CHORUS-
E|---------------------------------------------------|  (x4)
B|---------------------------------------------------|
G|---------------------------------------------------|
D|---0--12--0--0--0--15--0--0--12--0--0--13--13--13--|
A|---0--12--0--0--0--15--0--0--12--0--0--13--13--13--|
D|---0--12--0--0--0--15--0--0--12--0--0--13--13--13--|

 -VERSE-
E|-----------------------------------|  (x4)
B|-----------------------------------|
G|-----------------------------------|
D|---13--13--13--12~~~~~~------------|
A|---13--13--13--12~~~~~~------------|
D|---13--13--13--12~~~~~~------------|

 -PRECHORUS-
E|------------------------------------------------------------| (x2)
B|------------------------------------------------------------|
G|------------------------------------------------------------|
D|---10------8------7------0-12-0-0-0-15-0-0-12-0-0-13-13-13--|
A|---10-(x5)-8-(x5)-7-(x3)-0-12-0-0-0-15-0-0-12-0-0-13-13-13--|
D|---10------8------7------0-12-0-0-0-15-0-0-12-0-0-13-13-13--|


-CHORUS-
E|---------------------------------------------------|  (x4)
B|---------------------------------------------------|
G|---------------------------------------------------|
D|---0--12--0--0--0--15--0--0--12--0--0--13--13--13--|
A|---0--12--0--0--0--15--0--0--12--0--0--13--13--13--|
D|---0--12--0--0--0--15--0--0--12--0--0--13--13--13--|

 -BRIDGE-
E|-----------------------------------------------------------------| (x2)
B|-----------------------------------------------------------------|
G|-----------------------------------------------------------------|
D|-------------------------------------------------------8-7-3-2-1-|
A|-------------------------------------------------------8-7-3-2-1-|
D|---0-0h12-0h12-0h12-0-0h12-0h12-15p12-0-0h12-0h12-0h12-8-7-3-2-1-|


E|-----------------------------------------------------------------| (x4)
B|-----------------------------------------------------------------|
G|-----------------------------------------------------------------|
D|---0-0~-0h12-0h12-0-0~-0h12h15p12-0-0~-0h12-0h12--8--7--3--2--1--|
A|---0-0~-0h12-0h12-0-0~-0h12h15p12-0-0~-0h12-0h12--8--7--3--2--1--|
D|---0-0~-0h12-0h12-0-0~-0h12h15p12-0-0~-0h12-0h12--8--7--3--2--1--|
                                             /             /
                                            /             /
                                        (Instead Of This, End With
                                               The Beginning Of The
                                                        Pre-Chorus)

-CHORUS-
E|---------------------------------------------------| (x12)|--------------|
B|---------------------------------------------------|      |--------------|
G|---------------------------------------------------|      |--------------|
D|---0--12--0--0--0--15--0--0--12--0--0--13--13--13--|      |--13-13-13-10-|
A|---0--12--0--0--0--15--0--0--12--0--0--13--13--13--|      |--13-13-13-10-|
D|---0--12--0--0--0--15--0--0--12--0--0--13--13--13--|      |--13-13-13-10-|
                                         \        \             /     /
                                       (Instead Of This......End With This)

 -OUTRO-
E|----------------------|
B|----------------------|
G|----------------------|
D|---0----------------0-|
A|---0----------------0-|
D|---0-0h12-0h12-0h12-0-|


  >>>This was tabbed by ear, so if you come across any mistakes, feel to use what 
I already have correct, and finish this tab.
Tap to rate this tab
# A B C D E F G H I J K L M N O P Q R S T U V W X Y Z