Song name
# A B C D E F G H I J K L M N O P Q R S T U V W X Y Z

Godsmack - Whiskey Hangover tab

Whiskey Hangover Tab by Vincent508

Godsmack


Tuning: Drop D
e
B
G
D
A
D


Song Order:

Main Riff
Verse riff 1
Main Riff
Verse Riff 1
Verse Riff 2
Main Riff (x2)
Bridge Intro
Bridge Riff
Main Riff (x3)
Outro


Main Riff
--------------------------------------


Rock distortion

|-------------------------------------------------------------------------------|
|-------------------------------------------------------------------------------|
|--------------7----------7----------10------------------7----------8---8---8---|  x4
|---0----------7----------7--0---0---10----------0---0---7---0------8---8---8---|
|---0----------5----------5--0---0---8-----------0---0---5---0------6---6---6---|
|---0------------------------0---0---------------0---0-------0------------------|


Verse riff 1
---------------


rock distortion

Note: guitar lets strum ring, during bass fill.
|---------------------------------------------------------|
|---------------------------------------------------------|
|---7-----------------(7)---------------------8---8---8---|  x4
|---7-----------------(7)---------------------8---8---8---|
|---5-----------------(5)---------------------6---6---6---|
|---------------------------------------------------------|

Verse Riff 2
--------------

Rock Distortion

|------------------------------------------|
|------------------------------------------|
|------------------------------------------|
|---10----------10----------10---10---10---|
|---10----------10----------10---10---10---|
|---10----------10----------10---10---10---|

|------------------------------------------------|
|------------------------------------------------|
|------------------------------------------------|
|---8----------8----------8----------5---7---3---|
|---8----------8----------8----------5---7---3---|
|---8----------8----------8----------5---7---3---|

|-------------------------------------------------------------------------------|
|-------------------------------------------------------------------------------|
|--------------7----------7----------10------------------7----------8---8---8---|
|---0----------7----------7--0---0---10----------0---0---7---0------8---8---8---|
|---0----------5----------5--0---0---8-----------0---0---5---0------6---6---6---|
|---0------------------------0---0---------------0---0-------0------------------|

|------------------------------------------|
|------------------------------------------|
|------------------------------------------|
|---10----------10----------10---10---10---|
|---10----------10----------10---10---10---|
|---10----------10----------10---10---10---|

|------------------------------------------------|
|------------------------------------------------|
|------------------------------------------------|
|---8----------8----------8----------5---7---3---|
|---8----------8----------8----------5---7---3---|
|---8----------8----------8----------5---7---3---|


Bridge Intro
--------------

Wah effect

**h = Hammer On
  b = Bend
|-----------------------------------------------------------------|
|-----------------------------------------------------------------|
|-----------------------------------------------------------------|
|-----------------------------------------------------3b3.5-------|
|-------------------3h5---3h5-------------------3h5-----------5---|
|---0.--------0h3---------------0.--------0h3---------------------|

|-------------------------------|
|-------------------------------|
|-------------------------------|
|-------------------------------|
|-------------------3h5---3h5---|
|---0.--------0h3---------------|


|-------------------------------------|
|-------------------------------------|
|---3----------2----------------------|
|---3----------2----------3---2---1---|
|---1----------0----------3---2---1---|
|-------------------------3---2---1---|

**Play through the whole bridge intro twice.


Bridge Riff
--------------


Rock distortion

|-------------------------------------------------------------------|
|-------------------------------------------------------------------|
|-----------------------------------------------------------5-------|
|---0.--------0---0-5---7---5---7---0.--------0---0-5---7---3---7---|
|---0.--------0---0-3---5---3---5---0.--------0---0-3---5-------5---|
|---0.--------0---0-----------------0.--------0---0-----------------|
Note: . = Mute the note after striking it.
|-----------------------------------|
|-----------------------------------|
|-----------------------------------|
|---0.--------0---0-5---7---5---7---|
|---0.--------0---0-3---5---3---5---|
|---0.--------0---0-----------------|

|-------------------------------------|
|-------------------------------------|
|---3----------2----------------------|
|---3----------2----------3---2---1---|
|---1----------0----------3---2---1---|
|-------------------------3---2---1---|

Play through the above riff 4 times, and on the fourth time, replace the third bar with 
to outro the riff.

|---------------------------------------------------------------|
|---------------------------------------------------------------|
|---------------------------------------------------------------|
|---5---5---5---5---5---5---5---5---3---3---3---3-------(3)-----|
|---3---3---3---3---3---3---3---3---1---1---1---1-------(1)-----|
|---------------------------------------------------------------|


Outro
-------

**: Brackets = Let note ring.
|--------------------------------------------------|
|--------------------------------------------------|
|---5------------------------------(5)-------------|
|---5------------------------------(5)-------------|
|---3------------------------------(3)-------------|
|--------------------------------------------------|


|-------------------------------------|
|-------------------------------------|
|-------------------------------------|
|-------------------------------0-----|
|-------------------3h5---3h5---0-----|
|---0.--------0h3---------------0-----|
Tap to rate this tab
# A B C D E F G H I J K L M N O P Q R S T U V W X Y Z