Song name
# A B C D E F G H I J K L M N O P Q R S T U V W X Y Z

Godsmack - Crying Like A Bitch tab

* = palm mute
/ = slide



E  :-----------------------------------------------------|
B : -----------------------------------------------------|
G : ----------------3/555--------------------------------|
D : ----------------3/555--------------------------------|
A : -000--00-0-0-0--1/333--------------------------------|
D : -000--00-0-0-0---------------------------------------|    
     ***  ** * * *
E  :-----------------------------------------------------|
B : -----------------------------------------------------|
G : ----------------3/5555-------------------------------|
D : ----------------3/5555-------------------------------|
A : -000--00-0-0-0--1/3333-------------------------------|
D : -000--00-0-0-0---------------------------------------|
     ***  ** * * *
E  :-----------------------------------------------------|
B : -----------------------------------------------------|
G : ----------------3/555--------------------------------|
D : ----------------3/555--------------------------------|
A : -000--00-0-0-0--1/333--------------------------------|
D : -000--00-0-0-0---------------------------------------|
     ***  ** * * *

E  : ----------------------------------------------------|
B : -----------------------------------------------------|
G : -----------------------------------------------------|
D : -----------------------------------------------------|
A : -000-00-0--------------------------------------------|
D : -000-00-0-----0-7-8-10-8-7-8-------------------------|
     *** ** *
E  :-----------------------------------------------------|
B : -----------------------------------------------------|
G : ----------------3/555--------------------------------|
D : ----------------3/555--------------------------------|
A : -000--00-0-0-0--1/333--------------------------------|
D : -000--00-0-0-0---------------------------------------|    
     ***  ** * * *
E  : ----------------------------------------------------|
B : -----------------------------------------------------|
G : -----------------------------------------------------|
D : -----------------------------------------------------|
A : -000-00-0--------------------------------------------|
D : -000-00-0-----0-7-8-10-8-7-8-------------------------|
     *** ** *

E  :-----------------------------------------------------|
B : -----------------------------------------------------|
G : ----------------3/5555-------------------------------|
D : ----------------3/5555-------------------------------|
A : -000--00-0-0-0--1/3333-------------------------------|
D : -000--00-0-0-0---------------------------------------|
     ***  ** * * *

E  : ----------------------------------------------------|
B : -----------------------------------------------------|
G : -----------------------------------------------------|
D : -----------------------------------------------------|
A : -3553553553555333------------------------------------|
D : -3553553553555333------------------------------------|

Chorus

E  : ----------------------------------------------------------|
B : -3-3-----------3-3------------3-3--------------------------|
G : -2-2-----------2-2------------2-2--------------------------|
D : -0-0-----------0-0------------0-0--------------------------|
A : -0-0---3---3---0-0---3---3----0-0---3--3----55555555-888888|
D : -------3---3---------3---3----------3--3----55555555-888888|

Tap to rate this tab
# A B C D E F G H I J K L M N O P Q R S T U V W X Y Z