Song name
# A B C D E F G H I J K L M N O P Q R S T U V W X Y Z

Godsmack - The Oracle tab

This is my 2nd tab and i know it's not perfect but i think there is something 
about 70% of that song.

Tab by: Amadi
Song: Godsmack - The Oracle (instrumental)
Album: The Oracle
Year: 2010





1st Guitar
    Intro 
  d |------------------------------------------------------------------|
  A |---12----11----12---11--------12----11----12---11-----------------|
  F |------------------------------------------------------------------|
  C |-9-----8-----9----8---------9-----8-----9----8--------------------|
  G |7-7---7-7---7-7--7-7--7----7-7---7-7---7-7--7-7-------------------|
  D |------------------------------------------------------------------|

2nd Guitar
  d |------------------------------------------------------------------|
  A |------------------------------------------------------------------|
  F |------------------------------------------------------------------|
  C |------------------------------------------------------------------|
  G |------------------------------------------------------------------|
  D |------------------------------------------------------------------|

1st Guitar 
  d |------------------------------------------------------------------|
  A |---12----11----12---11--------12----11----12---11-----------------|
  F |------------------------------------------------------------------|
  C |-9-----8-----9----8---------9-----8-----9----8--------------------|
  G |7-7---7-7---7-7--7-7--7----7-7---7-7---7-7--7-7-------------------|
  D |------------------------------------------------------------------|

2nd Guitar
  d |------------------------------------------------------------------|
  A |-15-15-15~---15/12------------------------------------------------|
  F |-------------------------14^15/12---------------------------------|
  C |---------------------------------14~------------------------------|
  G |------------------------------------------------------------------|
  D |------------------------------------------------------------------|

1st Guitar the same
2nd Guitar
  d |-------------19-24------------------------------------------------|
  A |-15^16-15^16------------------------------------------------------|
  F |-----------------11h12-x8-7\9-------------------------------------|
  C |------------------------------------------------------------------|
  G |------------------------------------------------------------------|
  D |------------------------------------------------------------------|

1st Guitar still Intro
2nd Guitar
  d |------------------------------------------------------------------|
  A |------------------------------------------------------------------|
  F |12-11-9-12-11-9-12-11-x8------------------------------------------|
  C |------------------------------------------------------------------|
  G |------------------------------------------------------------------|
  D |------------------------------------------------------------------|

1st Guitar still Intro (last time)
2nd Guitar
  d |15-14-12-15-14-12-15-14-x7--15-14-12-15-14-12-14-12---------------|
  A |------------------------------------------------------------------|
  F |------------------------------------------------------------------|
  C |------------------------------------------------------------------|
  G |------------------------------------------------------------------|
  D |------------------------------------------------------------------|

1st & 2nd Guitars
  d |----------------------------------------------------------------------|
  A |----------------------------------------------------------------------|
  F |7-5------------------5-4-2-----------------7-5------------------5-4---|
  C |7-5-2----------------5-4-2-----------------7-5-2----------------5-4-3~|
  G |5-3-2----------------3-2-0-0-0000-00000000-5-3-2----------------3-2-3~|
  D |----0-00000-00000000---------------------------0-0000-00000000------1~|

1st & 2nd Guitars
  d |--------------------------------------------------------------------|
  A |--------------------------------------------------------------------|
  F |-------------------------3~-----------------------5~----------------|
  C |-------------------------3~-----------------------5~----------------|
  G |2-3-5-3-2----------------1~-2-3-5-3-2-------------3~-2-3-5-3-2------|
  D |----------3p0-000-000-0---------------0-000-000-0--------------3p0--|

1st & 2nd Guitars
  d |--------------------------------------------------------------------|
  A |--------------------------------------------------------------------|
  F |----------3~-----------------------5~--------------------------3----|
  C |----------3~-----------------------5~--------------------------3----|
  G |----------1~-2-3-5-3-2-------------3~-2-3-5-3-2----------------1~-2-|
  D |000-000-0--------------0-000-000-0--------------3p0-000-0000-0------|

1st & 2nd Guitars
  d |--------------------------------------------------------------------|
  A |--------------------------------------------------------------------|
  F |---------------------5~--------------------------3~-----------------|
  C |---------------------5~--------------------------3~-----------------|
  G |-3-5-3-2-------------3~-2-3-5-3-2----------------1~-2-3-5-3-2-------|
  D |---------0-000-000-0--------------3p0-000-0000-0--------------0-000-|

1st & 2nd Guitars
  d |----------------------------------------------------------------|
  A |----------------------------------------------------------------|
  F |------5~-----------2-5--------------2-5--------------2-5--------|
  C |------5~-----------2-5-5-3----------2-5-5-3----------2-5-5-3~~--|
  G |------3~-2-3-5-3-2-0-3-5-3----------0-3-5-3----------0-3-5-3~~--|
  D |000-0------------------3-1-11-1111------3-1-11-1111------3-1~~--|

1st Guitar - I dont know what is there
2nd Guitar
  d |-------------------------------------------------------------------|
  A |---------------8-7-------------------------------------8-7-8h10p7--|
  F |9-11-9-11-9--9------9-11-9-11-9--9-9-7--9-11-9-11-9--9-------------|
  C |-------------------------------------------------------------------|
  G |-------------------------------------------------------------------|
  D |-------------------------------------------------------------------|

1st Guitar
  d |-------------------------------------------------------------------|
  A |-------------------------------------------------------------------|
  F |--------------------------3~-----------------------5~--------------|
  C |--------------------------3~-----------------------5~--------------|
  G |-2-3-5-3-2----------------1~-2-3-5-3-2-------------3~-2-3-5-3-2----|
  D |-----------3p0-000-0000-0--------------0-000-000-0--------------3p0|

2nd Guitar - solo

1st Guitar
  d |------------------------------------------------------------------|
  A |------------------------------------------------------------------|
  F |----------3~-----------------------5~-----------2-5---------------|
  C |----------3~-----------------------5~-----------2-5-5-3-----------|
  G |----------1~-2-3-5-3-2-------------3~-2-3-5-3-2-0-3-5-3-----------|
  D |000-000-0--------------0-000-000-0------------------3-1-11-1111---|

1st Guitar
  d |------------------------------------------------------------------|
  A |------------------------------------------------------------------|
  F |2-5-------------2-5-----------------------------------------------|
  C |2-5-5-3---------2-5-5-3~~-----------------------------------------|
  G |0-3-5-3---------0-3-5-3~~-----------------------------------------|
  D |----3-1-11-1111-----3-1~~-----------------------------------------|

2nd Guitar
  d |-------------------------------------------------------------------|
  A |---------------8-7-------------------------------------8-7-8h10p7--|
  F |9-11-9-11-9--9------9-11-9-11-9--9-9-7--9-11-9-11-9--9-------------|
  C |-------------------------------------------------------------------|
  G |-------------------------------------------------------------------|
  D |-------------------------------------------------------------------|

2nd Guitar
  d |-------------------------------------------------------------------|
  A |8-7----------8-10--10-8-7-8-12-15-10-8-7----------8-10-8-7-8-11^12-|
  F |----9-7--9-9-----------------------------9-7--9-9------------------|
  C |-------------------------------------------------------------------|
  G |-------------------------------------------------------------------|
  D |-------------------------------------------------------------------|

2nd Guitar                           And then solo
  d |---------------12--12----12----------------------------------------|
  A |11^12-10p8h10----12--12----12--------------------------------------|
  F |-------------------------------------------------------------------|
  C |-------------------------------------------------------------------|
  G |-------------------------------------------------------------------|
  D |-------------------------------------------------------------------|

1st Guitar
  d |-------------------------------------------------------------------|
  A |-------------------------------------------------------------------|
  F |-------------------------------------------------------------------|
  C |--------------10/9--10/9----10/9--10/9--10/9--10/9-----------------|
  G |--------------10/9--10/9----10/9--10/9--10/9--10/9-2-3-5-3-2-------|
  D |---------------8/7---8/7-----8/7---8/7---8/7---8/7-----------3p0-00|

1st Guitar
  d |-------------------------------------------------------------------|
  A |-------------------------------------------------------------------|
  F |--------3~-----------------------5~-------------------------3~-----|
  C |--------3~-----------------------5~-------------------------3~-----|
  G |--------1~-2-3-5-3-2-------------3~-2-3-5-3-2---------------1~-2-3-|
  D |0-000-0--------------0-000-000-0--------------3p0-000-000-0--------|
2nd Guitar solo

1st Guitar
  d |------------------------------------------------------------------|
  A |------------------------------------------------------------------|
  F |------------------5~----------------------------------------------|
  C |------------------5~-----------3~---------------------------------|
  G |5-3-2-------------3~-2-3-5-3-2-3~---------------------------------|
  D |------0-000-000-0--------------1~---------------------------------|

1st Guitar
  d |----------------------------------------------------------------------|
  A |----------------------------------------------------------------------|
  F |9\11-9\11-9\14--------7-5-4-2-2-2------7-5-4-4-4-4------7-5-4-2-2-2---|
  C |9\11-9\11-9\14--------7-5-4-2-2-2-5~---7-5-4-4-4-4-7~---7-5-4-2-2-2-54|
  G |7\9--7\9--7\12--x11---5-3-2-0-0-0-5~---5-3-2-2-2-2-7~---5-3-2-0-0-0-54|
  D |----------------------------------3~---------------5~---------------32|

1st Guitar
  d |----------------------------------------------------------------------|
  A |----------------------------------------------------------------------|
  F |9\11-9\11-9\14--------------------------------------------------------|
  C |9\11-9\11-9\14--------------------------------------------------------|
  G |7\9--7\9--7\12--x4---7-9-9-7-9-9-7-9-9-12-7-x4------------------------|
  D |----------------------------------------------------------------------|

1st Guitar
  d |----------------------------------------------------------------------|
  A |----------------------------------------------------------------------|
  F |----------------------------------------------------------------------|
  C |----------------------------------------------------------------------|
  G |7-9-9-7-9-9-7-9-9-12-7-x4---------------------------------------------|
  D |----------------------------------------------------------------------|

2nd Guitar
  d |------------------------------------------------------------------|
  A |------------------------------------------------------------------|
  F |11-11----11-11----11-11--11-11-11-11-11-11-11-11------------------|
  C |11-11----11-11----11-11--11-11-11-11-11-11-11-11------------------|
  G |-9--9-----9--9-----9--9---9--9--9--9--9--9--9--9------------------|
  D |------------------------------------------------------------------|

1st Guitar
  d |------------------------------------------------------------------|
  A |------------------------------------------------------------------|
  F |7-5-4-2-2-2------7-5-4-4-4-4------7-5-4-2-2-2---------------------|
  C |7-5-4-2-2-2-5~---7-5-4-4-4-4-7~---7-5-4-2-2-2-54~~----------------|
  G |5-3-2-0-0-0-5~---5-3-2-2-2-2-7~---5-3-2-0-0-0-54~~----------------|
  D |------------3~---------------5~---------------32~~----------------|

1st Guitar
  d |------------------------------------------------------------------|
  A |------------------------------------------------------------------|
  F |9\11-9\11-9\14----------------------------------------------------|
  C |9\11-9\11-9\14----------------------------------------------------|
  G |7\9--7\9--7\12--x4------------------------------------------------|
  D |------------------------------------------------------------------|
2nd Guitar solo

1st Guitar
  d |------------------------------------------------------------------|
  A |------------------------------------------------------------------|
  F |9\11-9\11-9\14----------------------------------------------------|
  C |9\11-9\11-9\14----------------------------------------------------|
  G |7\9--7\9--7\12--x2------------------------------------------------|
  D |------------------------------------------------------------------|

2nd Guitar
  d |------------------------------------------------------------------|
  A |------------------------------------------------------------------|
  F |11---14-14-9-11---11----14-9-9-11---------------------------------|
  C |11---14-14-9-11---11----14-9-9-11---------------------------------|
  G |9----12-12-7--9----9----12-7-7--9---------------------------------|
  D |------------------------------------------------------------------|

1st & 2nd Guitars
  d |------------------------------------------------------------------|
  A |------------------------------------------------------------------|
  F |9\11-9\11-9\14----------------------------------------------------|
  C |9\11-9\11-9\14----------------------------------------------------|
  G |7\9--7\9--7\12--x4------------------------------------------------|
  D |------------------------------------------------------------------|

1st Guitar
  d |------------------------------------------------------------------|
  A |------------------------------------------------------------------|
  F |9\11-9\11-9\14----------------------------------------------------|
  C |9\11-9\11-9\14----------------------------------------------------|
  G |7\9--7\9--7\12--x4------------------------------------------------|
  D |------------------------------------------------------------------|

2nd Guitar
  d |------------------------------------------------------------------|
  A |------------------------------------------------------------------|
  F |91111111111114141414-x4-------------------------------------------|
  C |------------------------------------------------------------------|
  G |------------------------------------------------------------------|
  D |------------------------------------------------------------------|

1st & 2nd Guitar
  d |------------------------------------------------------------------|
  A |------------------------------------------------------------------|
  F |11----14----16----17----11~~--------------------------------------|
  C |11----14----16----17----11~~--------------------------------------|
  G |-9-x8-12-x8-14-x8-15-x8-9~~---------------------------------------|
  D |------------------------------------------------------------------|

And 1st Guitar intro last time
Tap to rate this tab
 
# A B C D E F G H I J K L M N O P Q R S T U V W X Y Z