Song name
# A B C D E F G H I J K L M N O P Q R S T U V W X Y Z

Godsmack - Shadow Of A Soul tab

Godsmack: Shadow Of A Soul

Transcribed by: mysticguitar77 (disturbedfreak0520@yahoo.com)

Date last modified: May 13, 2010

PLEASE DO NOT COPY THIS TAB TO ANOTHER SITE
WITHOUT AUTHORS' PERMISSION. THANK YOU.

Tuning: Drop D (D,A,D,G,B,E)

Notes: Solo will be added at a later date. Just have the rhythm for now.

Riff 1 (fade in)
E|----------------------------------------------|
B|----------------------------------------------|
G|---------------10-10-10-10-10-10-10-10\-------|
D|-0-0-0--0-0-0--9--9--9--9--9--9--9--9\\-0-0-0-|
A|-0-0-0--0-0-0--8--8--8--8--8--8--8--8\\-0-0-0-|
D|-0-0-0--0-0-0---------------------------0-0-0-|
   * * *  * * *                           * * *

Riff 2
E|--------------------------|
B|--------------------------|
G|--------------------------|
D|-0-0-0-7-7--8-8--10-10-10-|
A|-0-0-0-7-7--8-8--10-10-10-|
D|-0-0-0-7-7--8-8--10-10-10-|
   * *

Repeat Riff 2 X3

E|-------------------|
B|-------------------|
G|-------------------|
D|-5--5--5-5\-3-3--3-|
A|-5--5--5-5\-3-3--3-|
D|-5--5--5-5\-3-3--3-|

Play entire Riff 2 X2

Play Riff 1   "Anywhere I go, anything I try..."
Play Riff 2   "Ohhhhhhhhhh, I'm so far from home!"
Play Riff 1   "I don't know where to run, I don't know how to hide..."
Play Riff 2   "Ohhhhhhhhhh, I'm so far from home!"

Riff 3 (rhythm guitar)
E|----------------------------------------------------------------|
B|----------------------------------------------------------------|
G|----------------------------------------------------------------|
D|-0-0-0-0-000-0-0-----------------0-0-0-0-000-0-0----------------|
A|-0-0-0-0-000-0-0-----------------0-0-0-0-000-0-0----------------|
D|-0-0-0-0-000-0-0-2b--2b--2b--2b--0-0-0-0-000-0-0-2b--2b--2b--2b-|
   * * * * *** * *                 * * * * *** * *

Riff 3 (Lead guitar w/ wah)
E|----------------------------------------------------------------|
B|----------------------------------------------------------------|
G|-7-7-7-7-7-7-7-7-----------------7-7-7-7-7-7-7-7----------------|
D|-x-x-x-x-x-x-x-x-----------------x-x-x-x-x-x-x-x----------------|
A|-5-5-5-5-5-5-5-5-2b--2b--2b--2b--5-5-5-5-5-5-5-5-2b--2b--2b--2b-|
D|----------------------------------------------------------------|

Riff 4a (solo)
E|-------------------------------------------------------|
B|-------------------------------------------------------|
G|-------------------------------------------------------|
D|-5-5-5--5-5-5--8-8-8-8-8-8-8-8\-5-5-5--3-3-3-3-6-6-6-6-|
A|-5-5-5--5-5-5--8-8-8-8-8-8-8-8\-5-5-5--3-3-3-3-6-6-6-6-|
D|-5-5-5--5-5-5--8-8-8-8-8-8-8-8\-5-5-5--3-3-3-3-6-6-6-6-|
   * * *  * * *                   * * *  * * * * * * * *

Riff 4b (solo)
E|---------------------------------------------------|
B|---------------------------------------------------|
G|---------------------------------------------------|
D|-5--5-5-5--8-8-8-8-8-8-8-8\-5-5-5--3-3-3-3-6-6-6-6-|
A|-5--5-5-5--8-8-8-8-8-8-8-8\-5-5-5--3-3-3-3-6-6-6-6-|
D|-5--5-5-5--8-8-8-8-8-8-8-8\-5-5-5--3-3-3-3-6-6-6-6-|
   *  * * *                   * * *  * * * * * * * *

Play Riff 4b X2

Riff 4c (solo)
E|---------------------------------------------------|
B|---------------------------------------------------|
G|---------------------------------------------------|
D|-5--5-5-5--8-8-8-8-8-8-8-8\-5-5-5--3-3-3-3-6-6-6-6-|
A|-5--5-5-5--8-8-8-8-8-8-8-8\-5-5-5--3-3-3-3-6-6-6-6-|
D|-5--5-5-5--8-8-8-8-8-8-8-8\-5-5-5--3-3-3-3-6-6-6-6-|
   *  * * *                   * * *

Riff 4d (solo)
E|-------------------------------------------|
B|-3-3--------------3-3----------------------|
G|-2-2--------------2-2----------------------|
D|-0-0--3-3-3-3-3-3-0-0--7-7-7-7-10-10-10-10-|
A|-0-0--3-3-3-3-3-3-0-0--7-7-7-7-10-10-10-10-|
D|-0-0--3-3-3-3-3-3-0-0--7-7-7-7-10-10-10-10-|

Play Riff 4d X3

Riff 4e (solo)
E|-----------------------|
B|-3-3-------------------|
G|-2-2-------------------|
D|-0-0--3-3-3-3-3-3-6----|
A|-0-0--3-3-3-3-3-3-6----|
D|-0-0--3-3-3-3-3-3-6----|

Play Riff 2   "Ohhhhhhhhh, I'm so far from home!"
(fade out)

There you go, enjoy!! And remember, I'll be adding solos to all my tabs in due time. 
solos are time consuming to learn and tab, I'm tabbing them after I tab the rhythm parts 
Solos will come in a couple weeks.
Tap to rate this tab
# A B C D E F G H I J K L M N O P Q R S T U V W X Y Z