Song name
# A B C D E F G H I J K L M N O P Q R S T U V W X Y Z

Godsmack - War And Peace tab

Godsmack: War And Peace

Transcribed by: mysticguitar77 (disturbedfreak0520@yahoo.com)

Date last modified: May 15, 2010

PLEASE DO NOT COPY THIS TAB TO ANOTHER SITE
WITHOUT AUTHORS' PERMISSION. THANK YOU.

Tuning Drop C (C,G,C,F,A,D)

Notes: Tuning is in Drop C for this one. The only song off The Oracle in this tuning.

Riff 1 (w/ wah)
D|-------------------------------------------------|
A|-------------------------------------------------|
F|-----7--7----10-10-10-10-10-----7--7-------------|
C|-----x--x----x--x--x--x--x------x--x-6-6-6-5-5-5-|
G|-----5--5----8--8--8--8--8------5--5-6-6-6-5-5-5-|
C|-0-0-------0----------------0-0------6-6-6-5-5-5-|

Riff 2   "Dance, with the devil inside of me..."
D|----------------------------------------------------|
A|----------------------------------------------------|
F|----------------------------------------------------|
C|-3p0--0-0-0-0-3p0--0-0-0-0-3p0--0-0-0-0-5/7-7-7/8-8-|
G|-3p0--0-0-0-0-3p0--0-0-0-0-3p0--0-0-0-0-3/5-5-5/6-6-|
C|-3p0--0-0-0-0-3p0--0-0-0-0-3p0--0-0-0-0-------------|
        * * * *      * * * *      * * * *

Riff 3   "Live and let live! Die and let die!"
D|----------------------------------------------------------|
A|----------------------------------------------------------|
F|----------------------------------------------------------|
C|-12/13--13-13-13-13-12/13--13-13-13-13-12/13--13-13-13-13-|
G|-10/11--11-11-11-11-10/11--11-11-11-11-10/11--11-11-11-11-|
C|----------------------------------------------------------|

D|----------------|
A|----------------|
F|----------------|
C|-12\10-10-8-8-8-|
G|-10\8--8--6-6-6-|
C|----------------|

D|----------------------------------------------------------|
A|----------------------------------------------------------|
F|----------------------------------------------------------|
C|-12/13--13-13-13-13-12/13--13-13-13-13-12/13--13-13-13-13-|
G|-10/11--11-11-11-11-10/11--11-11-11-11-10/11--11-11-11-11-|
C|----------------------------------------------------------|

D|--------------|
A|--------------|
F|--------------|
C|-10\8-8-7-7-7-|
G|-8\\6-6-5-5-5-|
C|--------------|

Play Riff 1   "War and peace in my head..."

Riff 4   "...will take me to the end!"
D|---------------------------------------|
A|---------------------------------------|
F|---------------------------------------|
C|-6--6--6--6--6-6-6-6-6-6-6-6-6-6-6-6-6-|
G|-6--6--6--6--6-6-6-6-6-6-6-6-6-6-6-6-6-|
C|-6--6--6--6--6-6-6-6-6-6-6-6-6-6-6-6-6-|
                 * * * * * * * * * * * *

Play Riff 2   "Hell awaits, it's closing in on me..."
Play Riff 3   "Live and let live! Die and let die!"
Play Riff 1   "War and peace in my head..."

Riff 5   "...will take me to the end!"
D|---------------------------------------------------|
A|---------------------------------------------------|
F|-----7--7---10-10-10-10-10-------------------------|
C|-----x--x---x--x--x--x--x--5h6-6-6-6-6-6-6-6-6-6-6-|
G|-----5--5---8--8--8--8--8--5h6-6-6-6-6-6-6-6-6-6-6-|
C|-0-0------0----------------5h6-6-6-6-6-6-6-6-6-6-6-|

Riff 6
D|-----------------------------------------------|
A|-----------------------------------------------|
F|-----------------------------------------------|
C|-3p0-0-3p0-0-3p0-0--0--0-13-13-13-10\8-8-8-8-8-|
G|-3p0-0-3p0-0-3p0-0--0--0-11-11-11-8\\6-6-6-6-6-|
C|-3p0-0-3p0-0-3p0-0--0--0-----------------------|
       *     *     *  *  *

D|-------------------------------------------|
A|-------------------------------------------|
F|-------------------------------------------|
C|-3p0-0-3p0-0-3p0-0--0--0-0h1-1-5h6-6-6-6-6-|
G|-3p0-0-3p0-0-3p0-0--0--0-0h1-1-5h6-6-6-6-6-|
C|-3p0-0-3p0-0-3p0-0--0--0-0h1-1-5h6-6-6-6-6-|
       *     *     *  *  *

Play Riff 1

Riff 1 alternate ending:
D|--------------------------------|
A|--------------------------------|
F|-----7--7---10-10-10-10-10------|
C|-----x--x---x--x--x--x--x--6----|
G|-----5--5---8--8--8--8--8--6----|
C|-0-0------0----------------6----|

Play Riff 1   "War and peace in my head..."
Play Riff 5   "...will take me to the end!"

Riff 7
D|-------------------------------------------------|
A|-------------------------------------------------|
F|-------------------------------------------------|
C|-3p0-0-0-0-0-3p0-0-0-0-0-3p0-0-0-0-0-6p5-6p5-6p5-|
G|-3p0-0-0-0-0-3p0-0-0-0-0-3p0-0-0-0-0-6p5-6p5-6p5-|
C|-3p0-0-0-0-0-3p0-0-0-0-0-3p0-0-0-0-0-6p5-6p5-6p5-|
       * * * *     * * * *     * * * *

D|---------------------------|
A|---------------------------|
F|---------------------------|
C|-3p0-0-0-0-0-3p0-0-0-0-0-0-|
G|-3p0-0-0-0-0-3p0-0-0-0-0-0-|
C|-3p0-0-0-0-0-3p0-0-0-0-0-0-|
       * * * *     * * * *

Enjoy!
Tap to rate this tab
 
# A B C D E F G H I J K L M N O P Q R S T U V W X Y Z