Song name
# A B C D E F G H I J K L M N O P Q R S T U V W X Y Z

Godsmack - Awake tab

This is the whole song, minus the lead at the end.

Drop C tuning              Key: h=harmonic   /=slide

1st guitar play this 4x.
D---------------}
A-3-3-3---------}
F-2-2-2---------}
C-0-0-0--3--1-1-}
G-0-0-0--1--1-1-}
C-0-0-0-----1-1-}

After 2 measures 2nd guitar goes...
D-------------------------------------}
A-------------------------------------}
F-------------------------------------}
C-7-7-7-7-7-7-7-7-7--3--8-8-8-8-8-8-8-}
G-5-5-5-5-5-5-5-5-5--1--6-6-6-6-6-6-6-}
C-------------------------------------}

Then 1st guitar goes
D-------------------------------------}
A-------------------------------------}
F-----------------------------------5h-}
C-0-0-0-0--0-0-0-0--0-0-0-0--0-0-0--5h-}
G-0-0-0-0--0-0-0-0--0-0-0-0--0-0-0----}
C-0-0-0-0--0-0-0-0--0-0-0-0--0-0-0----}

1st guitar
D-----------------------------------------------------------------------------------------
A-----------------------------------------------------------------------------------------
F-----------------------------------------------------------------------------------------
C----------7-7-8-8-8-8-0-0-0-0--7-7-8-8-8-8-0-0-0-0--7-7-8-8-8-8-0-0-0-0--7-7-10-10-10-10-
G-0-0-0-0--5-5-6-6-6-6-0-0-0-0--5-5-6-6-6-6-0-0-0-0--5-5-6-6-6-6-0-0-0-0--5-5-8--8--8--8--
C-0-0-0-0--------------0-0-0-0--------------0-0-0-0--------------0-0-0-0------------------

1st Guitar
D------------------------------------------------------------------}
A------------------------------------------------------------------}
F---------------------------------------------------------------10-}
C-0-0-0-0--7-7-8-8-8-8-0-0-0-0--7-7-8-8-8-8-0-0-0--7-7-8-8-8-8/-9--}
G-0-0-0-0--5-5-6-6-6-6-0-0-0-0--5-5-6-6-6-6-0-0-0--5-5-6-6-6-6/-8--}
C-0-0-0-0--------------0-0-0-0--------------0-0-0------------------}

1st Guitar play this a couple of times.
D----------------------}
A----------------------}
F----------------------}
C-0-0--0-0--0-0--3-1-1-}
G-0-0--0-0--0-0--1-1-1-}
C-0-0--0-0--0-0----1-1-}

1st guitar
D---------------}
A-3-3-3---------}
F-2-2-2---------}
C-0-0-0--3--1-1-}
G-0-0-0--1--1-1-}
C-0-0-0-----1-1-}

After 2 measures 2nd guitar goes...
D-------------------------------------}
A-------------------------------------}
F-------------------------------------}
C-7-7-7-7-7-7-7-7-7--3--8-8-8-8-8-8-8-}
G-5-5-5-5-5-5-5-5-5--1--6-6-6-6-6-6-6-}
C-------------------------------------}

Then 1st guitar goes
D-------------------------------------}
A-------------------------------------}
F-----------------------------------5h-}
C-0-0-0-0--0-0-0-0--0-0-0-0--0-0-0--5h-}
G-0-0-0-0--0-0-0-0--0-0-0-0--0-0-0----}
C-0-0-0-0--0-0-0-0--0-0-0-0--0-0-0----}

1st guitar
D-----------------------------------------------------------------------------------------
A-----------------------------------------------------------------------------------------
F-----------------------------------------------------------------------------------------
C----------7-7-8-8-8-8-0-0-0-0--7-7-8-8-8-8-0-0-0-0--7-7-8-8-8-8-0-0-0-0--7-7-10-10-10-10-
G-0-0-0-0--5-5-6-6-6-6-0-0-0-0--5-5-6-6-6-6-0-0-0-0--5-5-6-6-6-6-0-0-0-0--5-5-8--8--8--8--
C-0-0-0-0--------------0-0-0-0--------------0-0-0-0--------------0-0-0-0------------------

1st Guitar
D------------------------------------------------------------------}
A------------------------------------------------------------------}
F---------------------------------------------------------------10-}
C-0-0-0-0--7-7-8-8-8-8-0-0-0-0--7-7-8-8-8-8-0-0-0--7-7-8-8-8-8/-9--}
G-0-0-0-0--5-5-6-6-6-6-0-0-0-0--5-5-6-6-6-6-0-0-0--5-5-6-6-6-6/-8--}
C-0-0-0-0--------------0-0-0-0--------------0-0-0------------------}

1st Guitar play this a couple of times.
D----------------------}
A----------------------}
F----------------------}
C-0-0--0-0--0-0--3-1-1-}
G-0-0--0-0--0-0--1-1-1-}
C-0-0--0-0--0-0----1-1-}

1st guitar plays this twice as many times as normal
D---------------}
A-3-3-3---------}
F-2-2-2---------}
C-0-0-0--3--1-1-}
G-0-0-0--1--1-1-}
C-0-0-0-----1-1-}

2nd guitar starts immediatly this time.
D-------------------------------------}
A-------------------------------------}
F-------------------------------------}
C-7-7-7-7-7-7-7-7-7--3--8-8-8-8-8-8-8-}
G-5-5-5-5-5-5-5-5-5--1--6-6-6-6-6-6-6-}
C-------------------------------------}

Then 1st guitar goes
D-------------------------}
A-------------------------}
F-------------------------}
C-2-2-2-2--2-2-2-2-2--2-2-}
G-2-2-2-2--2-2-2-2-2--2-2-}
C-2-2-2-2--2-2-2-2-2--2-2-}

After a While the lead kicks in, if your better at playing by ear than i am, maybe you can figure the lead out.

Then the song Ends like this

1st guitar
D---------------}
A-3-3-3---------}
F-2-2-2---------}
C-0-0-0--3--1-1-}
G-0-0-0--1--1-1-}
C-0-0-0-----1-1-}

2nd guitar starts immediatly this again.
D-------------------------------------}
A-------------------------------------}
F-------------------------------------}
C-7-7-7-7-7-7-7-7-7--3--8-8-8-8-8-8-8-}
G-5-5-5-5-5-5-5-5-5--1--6-6-6-6-6-6-6-}
C-------------------------------------}

Well thats all folks, enjoy


Tap to rate this tab
# A B C D E F G H I J K L M N O P Q R S T U V W X Y Z