Song name
# A B C D E F G H I J K L M N O P Q R S T U V W X Y Z

Godsmack - Crying Like A Bitch tab

Cryin' like a Bitch- Godsmack

This song is just... Epic! And I noticed there wasn't an accurate, complete tabbing, 
so here it is!

Tuning is drop D (DADGBE)

Main Riff
e|--------------------------|----|--------------------------------|
B|--------------------------|-x3-|--------------------------------|
G|--------------------------|----|--------------------------------|
D|-------------------3/5-5-5|----|--------------------------------|
A|-0-0-0--0-0--0--0--1/3-3-3|----|-0-0-0--0-0--0------------------|
D|-0-0-0--0-0--0--0---------|----|-0-0-0--0-0--0---0-7-8-10-8-7-8-|
   . . .  . .  .  .                . . .  . .  . 
The Variation of this is only playing the first half once, then the second half, 
then the first once more, and then this:

e|-------------------------------|
B|-------------------------------| This variates throughout the
G|-------------------------------| song, but it's easy to figure
D|-------------------------------| out.
A|-3-5-5-3-5-5-3-5-5-3-5-5-3-5-3-|
D|-3-5-5-3-5-5-3-5-5-3-5-5-3-5-3-|

Chorus- Guitar one
e|-----------------|----|---------------------| The first chorus, this is 
B|-----------------|-x3-|---------------------| only played once, but every
G|-----------------|----|---------------------| time after, it's played 
D|-7--7-7-7-7-7--3-|----|---------------------| twice.
A|-5--5-5-5-5-5--3-|----|-5-5-5-5-5-8-8-8-8-8-|
D|-0--0-0-0-0-0--3-|----|-5-5-5-5-5-8-8-8-8-8-|

Chorus- Guitar two
e|---------------------------------|----|-------------------------------|
B|---------------------------------|-x3-|-------------------------------|
G|-7--7-7-7-7-7- 10--10-10-10-10-10|----|-12-12-12-12-12-15-15-15-15-15-|
D|-x--x-x-x-x-x--x---x--x--x--x--x-|----|-x--x--x--x--x--x--x--x--x--x--|
A|-5--5-5-5-5-5--8---8--8--8--8--8-|----|-10-10-10-10-10-13-13-13-13-13-|
D|---------------------------------|----|-------------------------------|
Those are just higher octaves of the guitar one, so you just follow the same pattern.

Pre-solo (just strum this chord, a couple of times)
e|---|
B|---|
G|---|
D|-7-|
A|-5-|
D|-0-|

Solo one, Guitar one
e|-------------------------|
B|-------------------------| x4
G|-------------------------|
D|-----3p0---------3p0-----|
A|-5-5-----3-5-5-5-----3-5-|
D|-------------------------|

during first solo, and right after it, guitar two plays this:
e|------------------|----|--------------------------------|
B|------------------|-x3-|--------------------------------|
G|------------------|----|--------------------------------|
D|------------------|----|--------------------------------|
A|-0-0-0--0-0--0--0-|----|-0-0-0--0-0--0--0---------------|
D|-0-0-0--0-0--0--0-|----|-0-0-0--0-0--0--0--0-7-8-10-8-7-|
   . . .  . .  .  .        . . .  . .  .  .

Solo two, Guitar two (guitar one plays the first solo eight times)
e|---------------| Strum each chord 16 times.
B|---------------| x2
G|-7--10--12--15-|
D|-x--x---x---x--|
A|-5--8---10--13-|
D|---------------|

e|---------------------|
B|---------------------|
G|---------------------|
D|---------------------|
A|-0-0-0--0-0--0--0--0-|
D|-0-0-0--0-0--0--0--0-|
   . . .  . .  .  .  .

Every part of the song is here, there are no more surprises. 
All you have to do is put it in order. 
Tap to rate this tab
 
# A B C D E F G H I J K L M N O P Q R S T U V W X Y Z