Song name
# A B C D E F G H I J K L M N O P Q R S T U V W X Y Z

Godsmack - Good Day To Die tab

Godsmack - "Good Day to Die" Solo
Drop-D tuning
tabbed by jjhand, just add to mysticguitar77's tab for the whole song

Use Good distortion & wah here for the pentatonic-based solo. "o+" is 
rocking the pedal fast on certain notes to make them "cry". Use wah as 
subtle expression on the other notes. Please rate/comment.


Starting at (2:33)

    o+     o+     o+     o+              
e|-------------------------------------|------------------------------|
B|-13-----13-----13-----13-------------|------------------------------|
G|-12b14--12b14--12b14--12b14--12p10---|-10--------------13-10--------|
D|----------------------------------12-|----12~----10h12------12------|
A|-------------------------------------|------------------------------|
D|-------------------------------------|------------------------------|

           o+        o+        o+        o+        o+
e|---------13-------------------------------------------------|
B|---------13--------12--------10--------12--------10---------|
G|-------------------12--------10--------12--------10---------|
D|-12-12-12--12-12-12--12-12-12--12-12-12--12-12-12--12-12-12-|
A|------------------------------------------------------------|
D|------------------------------------------------------------|
   PM******  ********  ********  ********  ********  ********


e|---------------------------------------|----------------------------|
B|-12b13~~~-10h12----10----10------------|------------------o+--------|
G|----------------13----13----12b14-10---|----------------------------|
D|---------------------------------------|-10____b11.5---12-12~~------|
A|---------------------------------------|----------------------------|
D|---------------------------------------|----------------------------|

                                         o+   o+   o+   o+   o+
e|-------------------------------------|-----------------------------|
B|-------------------------------------|---------------------10TP-13-|
G|-10----12-10----------10~~-----------|-----------10TP-12TP---------|
D|-----12-------12-10-12----12p10h12~--|-10TP-12TP-------------------|
A|-------------------------------------|-----------------------------|
D|-------------------------------------|-----------------------------|

                                 o+
e|-13~---10----------------------------|
B|-12~------13p10----------------------|
G|---------------12b14r12-10-----------|
D|---------------------------12--12----|
A|-------------------------------------|
D|-------------------------------------|  back to main riff





KEY
************************************

| /   slide up
| \   slide down
| h   hammer-on
| p   pull-off
| ~   vibrato
| +   harmonic
| x   Mute note
| b   Bend
| r   Bend release
| o+  rock the wah to toe down, then rock back quick

************************************
Tap to rate this tab
 
# A B C D E F G H I J K L M N O P Q R S T U V W X Y Z