Song name
# A B C D E F G H I J K L M N O P Q R S T U V W X Y Z

Godsmack - I Blame You tab

Artist: Godsmack
Song: I Blame You
Album: Oracle
Tabbed By: Thommoboy

Main Riff:
E)-------------------------------------------------|
B)-------------------------------------------------|
G)-------------------------------------------------|
D)-9-9-9-10-9-10-12-10-9-7-7-7-7-7-5-5-5-5-5/4-4-4-|
A)-9-9-9-10-9-10-12-10-9-7-7-7-7-7-5-5-5-5-5/4-4-4-|
D)-9-9-9-10-9-10-12-10-9-7-7-7-7-7-5-5-5-5-5/4-4-4-|

Verse:
E)---------------------------------------------------------------------|
B)---------------------------------------------------------------------|
G)---------------------------------------------------------------------|
D)-9-9-9-9-9--9-9-9-9--7-7-7-7--9-9-9-9-9--9-9-10-10-10-10-12-12-12-12-|
A)-9-9-9-9-9--9-9-9-9--7-7-7-7--9-9-9-9-9--9-9-10-10-10-10-12-12-12-12-|
D)-9-9-9-9-9--9-9-9-9--7-7-7-7--9-9-9-9-9--9-9-10-10-10-10-12-12-12-12-|


E)-------------------------------------------|
B)-------------------------------------------|
G)-------------------------------------------|
D)-9-9-9-9-9--9-9-9-9--7-7-7-7-5-5-5-4-4-4-4-|
A)-9-9-9-9-9--9-9-9-9--7-7-7-7-5-5-5-4-4-4-4-|
D)-9-9-9-9-9--9-9-9-9--7-7-7-7-5-5-5-4-4-4-4-|
Tap to rate this tab
# A B C D E F G H I J K L M N O P Q R S T U V W X Y Z