Song name
# A B C D E F G H I J K L M N O P Q R S T U V W X Y Z

Godsmack - Moon Baby tab

Band: Godsmack
Song: Moon Baby
Tabbed by: Brett Dixon
E-mail: Godsmack2222003@hotmail.com
Tuning: Dropped D
(e b G D A D)

Hello, folks! I've seen a lot of tabs for this awesome song, but a lot of them were
incomplete or wrong. Well, here is a complete tab of this great song. Enjoy!

Main Riff *Play 6X*
  F#5                 D5  E5 F#5              G5     A5 G5
E|--------------------------------------------------------|
B|--------------------------------------------------------|
G|--------------------------------------------------------|
D|-4-4-4-4-4---4-4-4---0---2--4-4-4-4-4---4-4--5-5-5--7-5-|
A|-4-4-4-4-4---4-4-4---0---2--4-4-4-4-4---4-4--5-5-5--7-5-|
D|-4-4-4-4-4---4-4-4---0---2--4-4-4-4-4---4-4--5-5-5--7-5-|

Pre-Chorus * Play 2X *
   D5     H P   D5    H  P   F#5          F#5     E5
E|--------------------------------------------------------|
B|--------------------------------------------------------|
G|--------------------------------------------------------|
D|-0--0---------0--0---------4--4---------4--4--4--2------|
A|-0--0--5^6^5--0--0--5^6^5--4--4--4-5-4--4--4--4--2------|
D|-0--0---------0--0---------4--4---------4--4--4--2------|

(Note: When Doing the A string hammer-ons and pulloffs from 5th,6th,5th frets, the D
notes (4th and 6th strings) need to keep ringing. This might take a little practice to play
chords, then do the notes without bumping the strings and stopping the sound, but trust 
practice makes perfect. For the F#5 chords to the 4th 5th and 4th frets you have to
a finger on 4th string and a finger on 6th string. Use the finger in the middle of that 
or middle finger) and do those notes without stopping the f#5 chord. Again, this wil 
a little practice, but practice makes perfect!!!)

*Chorus*
  D5                      E5 D5                    E5
E|--------------------------------------------------------|
B|--------------------------------------------------------|
G|--------------------------------------------------------|
D|-0-0-0-0-0---0-0-0---0--2--0-0-0-0-0---0-0-0---0--2-----|
A|-0-0-0-0-0---0-0-0---0--2--0-0-0-0-0---0-0-0---0--2-----|
D|-0-0-0-0-0---0-0-0---0--2--0-0-0-0-0---0-0-0---0--2-----|

   F#5               D5 E5 F#5
E|--------------------------------------------------------|
B|--------------------------------------------------------|
G|--------------------------------------------------------|
D|-4-4-4-4-4--4-4-4---0--2--4-4-4-4-4---4-4-4-------------|
A|-4-4-4-4-4--4-4-4---0--2--4-4-4-4-4---4-4-4-------------|
D|-4-4-4-4-4--4-4-4---0--2--4-4-4-4-4---4-4-4-------------|

Now its back to the:

Main Riff *Play 4X*
  F#5                 D5  E5 F#5              G5     A5 G5
E|--------------------------------------------------------|
B|--------------------------------------------------------|
G|--------------------------------------------------------|
D|-4-4-4-4-4---4-4-4---0---2--4-4-4-4-4---4-4--5-5-5--7-5-|
A|-4-4-4-4-4---4-4-4---0---2--4-4-4-4-4---4-4--5-5-5--7-5-|
D|-4-4-4-4-4---4-4-4---0---2--4-4-4-4-4---4-4--5-5-5--7-5-|

Pre-Chorus * Play 4X *
   D5     H P   D5    H  P   F#5          F#5     E5
E|--------------------------------------------------------|
B|--------------------------------------------------------|
G|--------------------------------------------------------|
D|-0--0---------0--0---------4--4---------4--4--4--2------|
A|-0--0--5^6^5--0--0--5^6^5--4--4--4-5-4--4--4--4--2------|
D|-0--0---------0--0---------4--4---------4--4--4--2------|

*Chorus*

(On This Chorus, you let all the notes ring)

  D5                      E5 D5                    E5
E|--------------------------------------------------------|
B|--------------------------------------------------------|
G|--------------------------------------------------------|
D|-0-0-0-0-0---0-0-0---0--2--0-0-0-0-0---0-0-0---0--2-----|
A|-0-0-0-0-0---0-0-0---0--2--0-0-0-0-0---0-0-0---0--2-----|
D|-0-0-0-0-0---0-0-0---0--2--0-0-0-0-0---0-0-0---0--2-----|

   F#5               D5 E5 F#5
E|--------------------------------------------------------|
B|--------------------------------------------------------|
G|--------------------------------------------------------|
D|-4-4-4-4-4--4-4-4---0--2--4-4-4-4-4---4-4-4-------------|
A|-4-4-4-4-4--4-4-4---0--2--4-4-4-4-4---4-4-4-------------|
D|-4-4-4-4-4--4-4-4---0--2--4-4-4-4-4---4-4-4-------------|

Next, it does this fill. Its Kind of hard to hear, but its there, and no other tabs have
so i tabbed it.

Fill 1:

E|------------------------------------------------------------------------|
B|------------------------------------------------------------------------|
G|------------------------------------------------------------------------|
D|------------------------------------------------------------------------|
A|------------------------------------------------------------------------|
D|-\14-14-14-14-13-12/----------------------------------------------------|

*Chorus*

(Again, let the notes ring)

  D5                      E5 D5                    E5
E|--------------------------------------------------------|
B|--------------------------------------------------------|
G|--------------------------------------------------------|
D|-0-0-0-0-0---0-0-0---0--2--0-0-0-0-0---0-0-0---0--2-----|
A|-0-0-0-0-0---0-0-0---0--2--0-0-0-0-0---0-0-0---0--2-----|
D|-0-0-0-0-0---0-0-0---0--2--0-0-0-0-0---0-0-0---0--2-----|

   F#5               D5 E5 F#5
E|--------------------------------------------------------|
B|--------------------------------------------------------|
G|--------------------------------------------------------|
D|-4-4-4-4-4--4-4-4---0--2--4-4-4-4-4---4-4-4---0--2--0~~~|
A|-4-4-4-4-4--4-4-4---0--2--4-4-4-4-4---4-4-4---0--2--0~~~|
D|-4-4-4-4-4--4-4-4---0--2--4-4-4-4-4---4-4-4---0--2--0~~~|

After letting it ring a little bit, play this fill, then we hed into the awesome 
riffs!

Fill 2

E|--------------------------------------------------------|
B|--------------------------------------------------------|
G|--------------------------------------------------------|
D|-2\5~~~~~~~~~~~~~---------------------------------------|
A|--------------------------------------------------------|
D|--------------------------------------------------------|

E|--------------------------------------------------------|
B|--------------------------------------------------------|
G|--------------------------------------------------------|
D|--------------------------------------------------------|
A|-0-4--0-4--0-4--0-4--5--4----0-4--0-4--0-4--0-4---------|
D|-0-4--0-4--0-4--0-4--5--4----0-4--0-4--0-4--0-4---------|
 PM........................   ...................

|         X3              |


Awesome Instrumental Riff 1
        *Play 8X*

E|----------------------------|
B|----------------------------|
G|----------------------------|
D|-0-4--0-4--0-4--0-4--5--4---|
A|-0-4--0-4--0-4--0-4--5--4---|
D|-0-4--0-4--0-4--0-4--5--4---|

This next lick, I don't know wether to call it fill#3 or guitar solo. It uses Wah-wah
a guitar solo, but is realy short like a fill, so i'll just call it wah-wah lick.

*Wah-Wah Lick*

E|--------------------------------------------------------|
B|--------------------------------------------------------|
G|--------------------------------------------------------|
D|--------------------------------------------------------|
A|\9999999999999999999999977777777777777777777777---------|
D|--------------------------------------------------------|

Awesome Instrumental Riff 1
        *Play 2X*

E|----------------------------|
B|----------------------------|
G|----------------------------|
D|-0-4--0-4--0-4--0-4--5--4---|
A|-0-4--0-4--0-4--0-4--5--4---|
D|-0-4--0-4--0-4--0-4--5--4---|

*Wah-Wah Lick*

E|--------------------------------------------------------|
B|--------------------------------------------------------|
G|--------------------------------------------------------|
D|--------------------------------------------------------|
A|\9999999999999999999999977777777777777777777777---------|
D|--------------------------------------------------------|

Awesome Instrumental Riff 1
        *Play 2X*

E|----------------------------|
B|----------------------------|
G|----------------------------|
D|-0-4--0-4--0-4--0-4--5--4---|
A|-0-4--0-4--0-4--0-4--5--4---|
D|-0-4--0-4--0-4--0-4--5--4---|

Then, you do this lick:

Interlude

E|--------------------------------------------------------|
B|--------------------------------------------------------|
G|--------------------------------------------------------|
D|-2--2--2---2-2-2---2--2---2----2--2--2------------------|
A|-2--2--2---2-2-2---2--2---2----2--2--2------------------|
D|-2--2--2---2-2-2---2--2---2----2--2--2----\14/----------|

*play this like 4X*
|------------------------------|
B|-----------------------------|
G|-----------------------------|
D|-----------------------------|
A|-0-4--0-4--0-4--0-4--5--4----|
D|-0-4--0-4--0-4--0-4--5--4----|
P.M........................

*Wah-Wah Lick*

E|--------------------------------------------------------|
B|--------------------------------------------------------|
G|--------------------------------------------------------|
D|--------------------------------------------------------|
A|\9999999999999999999999977777777777777777777777---------|
D|--------------------------------------------------------|

Awesome Instrumental Riff 1
        *Play 2X*

E|----------------------------|
B|----------------------------|
G|----------------------------|
D|-0-4--0-4--0-4--0-4--5--4---|
A|-0-4--0-4--0-4--0-4--5--4---|
D|-0-4--0-4--0-4--0-4--5--4---|

*Wah-Wah Lick*

E|--------------------------------------------------------|
B|--------------------------------------------------------|
G|--------------------------------------------------------|
D|--------------------------------------------------------|
A|\9999999999999999999999977777777777777777777777---------|
D|--------------------------------------------------------|

E|----------------------------|
B|----------------------------|
G|----------------------------|
D|-0-4--0-4--0-4--0-4--5--4---|
A|-0-4--0-4--0-4--0-4--5--4---|
D|-0-4--0-4--0-4--0-4--5--4---|

E|--------------------------------------------------------|
B|--------------------------------------------------------|
G|--------------------------------------------------------|
D|-0-4--0-4--0-4--0-4-------------------------------------|
A|-0-4--0-4--0-4--0-4-------------------------------------|
D|-0-4--0-4--04---0-4------------[pauze]------------------|

Awesome Instrumental Riff 1
        *Play 8X*

E|----------------------------|
B|----------------------------|
G|----------------------------|
D|-0-4--0-4--0-4--0-4--5--4---|
A|-0-4--0-4--0-4--0-4--5--4---|
D|-0-4--0-4--0-4--0-4--5--4---|

*Wah-Wah Lick* (play 3X)

E|--------------------------------------------------------|
B|--------------------------------------------------------|
G|--------------------------------------------------------|
D|--------------------------------------------------------|
A|\9999999999999999999999977777777777777777777777---------|
D|--------------------------------------------------------|

E|----------------------------|
B|----------------------------|
G|----------------------------|
D|-0-4--0-4--0-4--0-4--5--4---|
A|-0-4--0-4--0-4--0-4--5--4---|
D|-0-4--0-4--0-4--0-4--5--4---|

E|----------------------------------------------------------|
B|----------------------------------------------------------|
G|----------------------------------------------------------|
D|-0-4--0-4--0-4--0-4---------------------------------------|
A|-0-4--0-4--0-4--0-4---------------------------------------|
D|-0-4--0-4--04---0-4------------[end]----------------------|

Well there you have it, the entire song in that order. Man this tab toook a while, but
finnaly done. Well, I hope you enjoy!!!
Tap to rate this tab
# A B C D E F G H I J K L M N O P Q R S T U V W X Y Z