Song name
# A B C D E F G H I J K L M N O P Q R S T U V W X Y Z

Godsmack - I Blame You tab

So this is my first tab, should be all set except for the solos but those are pretty close.
I tried to show the melodies in the first verse and the chorus, hopefully it helps.
Rock on.

Intro:
e|---------------------------------------------------------------------------------|
B|---------------------------------------------------------------------------------|
G|---------------------------------------------------------------------------------|x4
D|-9-------------------------7-7777-5-5555-4---------------------------------------|
A|-9-9h10-10p9-9-10-12-10-9--7-7777-5-5555-4---------------------------------------|
D|-9-9----9----9-9--9--9--9--7-7777-5-5555-4---------------------------------------|

Verse:
e|---------------------------------------------------------------------------------|
B|---------------------------------------------------------------------------------|
G|---------------------------------------------------------------------------------|
D|-9999--9997--7779--------9999--9999--99--7---------------------------------------|
A|-9999--9997--7779--------9999--9999--99--5---------------------------------------|
D|-9999--9997--7779--------9999--9999--99------------------------------------------|
      shiftin...ashes               ... my life

e|---------------------------------------------------------------------------------|
B|---------------------------------------------------------------------------------|
G|---------------------------------------------------------------------------------|
D|-9999--9997--7779-----5--55--4--4--5---------------------------------------------|
A|-9999--9997--7779-----5--55--4--4--5---------------------------------------------|
D|-9999--9997--7779-----5--55--4--4--5---------------------------------------------|
                      live...pro-mis-es

e|---------------------------------------------------------------------------------|
B|---------------------------------------------------------------------------------|
G|---------------------------------------------------------------------------------|
D|-9999--9997--7779--------9999--9999--99--7---------------------------------------|
A|-9999--9997--7779--------9999--9999--99--5---------------------------------------|
D|-9999--9997--7779--------9999--9999--99------------------------------------------|
           or...reason         ...an-other fight

e|---------------------------------------------------------------------------------|
B|---------------------------------------------------------------------------------|
G|---------------------------------------------------------------------------------|
D|-9999--9997--7779-----5--55--4--4--4---------------------------------------------|
A|-9999--9997--7779-----5--55--4--4--4---------------------------------------------|
D|-9999--9997--7779-----5--55--4--4--4---------------------------------------------|
                      based...ig-nor-ance

Chorus:
e|---------------------------------------------------------------------------------|
B|---------------------------------------------------------------------------------|
G|---------------------------------------------------------------------------------|
D|-9-------------------------7-7777-5-5555-4---------------------------------------|
A|-9-9h10-10p9-9-10-12-10-9--7-7777-5-5555-4---------------------------------------|
D|-9-9----9----9-9--9--9--9--7-7777-5-5555-4---------------------------------------|
              And I-         I-     I   I blame

e|---------------------------------------------------------------------------------|
B|---------------------------------------------------------------------------------|
G|---------------------------------------------------------------------------------|
D|-9-------------------------7-7777-5-5555-4---------------------------------------|
A|-9-9h10-10p9-9-10-12-10-9--7-7777-5-5555-4---------------------------------------|
D|-9-9----9----9-9--9--9--9--7-7777-5-5555-4---------------------------------------|
    you                     thing...do

e|---------------------------------------------------------------------------------|
B|---------------------------------------------------------------------------------|
G|---------------------------------------------------------------------------------|
D|-9-------------------------7-7777-5-5555-4---------------------------------------|
A|-9-9h10-10p9-9-10-12-10-9--7-7777-5-5555-4---------------------------------------|
D|-9-9----9----9-9--9--9--9--7-7777-5-5555-4---------------------------------------|
  scars   I    bear      ...all my air    For

e|---------------------------------------------------------------------------------|
B|---------------------------------------------------------------------------------|
G|---------------------------------------------------------------------------------|
D|-9-------------------------7-7777-5-5555-4---------------------------------------|
A|-9-9h10-10p9-9-10-12-10-9--7-7777-5-5555-4---------------------------------------|
D|-9-9----9----9-9--9--9--9--7-7777-5-5555-4---------------------------------------|
  every        ...           do      I   blame

First Solo (w/ wah):
e|---------------------------------------------------------------------10v---------|
B|---------------------------------------------------------------10h12-------------|
G|-7T--5h7-7p5-5h7-7v-7p5------12b-12p10-------12p10-------10h12-------------------|
D|------------------------7-7------------12-12-------12p10-------------------------|
A|---------------------------------------------------------------------------------|
D|---------------------------------------------------------------------------------|
  you

Verse

Chorus

First Bridge Riff:
e|---------------------------------------------------------------------------------|
B|---------------------------------------------------------------------------------|
G|---------------------------------------------------------------------------------|
D|-0--------------------------5----------------------------------------------------|x2
A|-0--------------------------5----------------------------------------------------|
D|-0-00-00-00-00-00-00-00-00--5-5p3-3h5-5p3-3h5-5p3-3h5--3-------------------------|
PM   ** ** ** ** ** ** ** **

Second Solo (w/wah):
e|---------------------------------------------------------------------------------|
B|---------------------------------------------------------------------------------|
G|------------------------7b-7p5---------------------------------------------------|
D|-7b-7-7-7-7-7-7-7-7-5h7--------7---7p5-5v----------------------------------------|
A|------------------------------------------7\\\-----------------------------------|
D|---------------------------------------------------------------------------------|
       ^ hit 7th fret while unbending string

Second Bridge Riff:						Finish with (w/wah)
e|--------------------------------------------------------------|   |--------------|
B|--------------------------------------------------------------|   |--------------|
G|--------------------------------------------------------------|x2 |--7777777777--|
D|--------------------------------------------------------------|   |--xxxxxxxxxx--|
A|-0--3h5-0-3h5-0-3h5-0-3h5-0-3h5-------------------------------|   |--5555555555--|
D|--------------------------------------------------------------|   |--------------|

Structure:
Intro
Verse
Chorus
First Solo
Verse
Chorus
First Bridge
Second Solo
Second Bridge
Chorus 2x
Tap to rate this tab
# A B C D E F G H I J K L M N O P Q R S T U V W X Y Z