Song name
# A B C D E F G H I J K L M N O P Q R S T U V W X Y Z

Godsmack - The Journey tab

-----------------------------------------------------------------------------
			     THE JOURNEY - Godsmack
-----------------------------------------------------------------------------
Tabbed by: EvilInACloset
Email: thequietpiace@aol.com

Tuning: C,G,C,F,A,D

Alright, this is pretty easy. Play it with no distortion, and at the top of the neck, 
the nut. Enjoy. GODSMACK RULES!!!

                                         Play 5 times     |Then play
e|-------0-----------------------------0------------------|------------------|
B|------------0-----------------------------0-------------|------------------|
G|--0------------------0----------0------------------0----|------------------|
D|--------------------------------------------------------|------------------|
A|--------------------------------------------------------|------------------|
E|--------------------------------------------------------|---3/-------------|
Tap to rate this tab
# A B C D E F G H I J K L M N O P Q R S T U V W X Y Z