Song name
# A B C D E F G H I J K L M N O P Q R S T U V W X Y Z

Godsmack - Good Day To Die tab

---------------------------------------------------------------------------
                          Godsmack - Good Day To Die
---------------------------------------------------------------------------
Tabbed By: Tobse
Tuning: Drop D [ D A D G B E ]

 Intro (Fig.1)
E|------------------------------------------------------------------------|
B|------------------------------------------------------------------------|
G|------------------------------------------------------------------------|
D|-0---7-0-0-8-0-0-10-0-0-8-0-0-7-7---0---7-0-0-8-0-0-10-0-0-8-0-0-7------|
A|------------------------------------------------------------------------|
D|------------------------------------------------------------------------|

E|--------------------------------|---------------------------------------|
B|--------------------------------|---------------------------------------|
G|--------------------------------|---------------------------------------|
D|-0---7-0-0-8-0-0-10-0-0-8-0-0-7-|-7-0-0-5-0-0-5-0-0-8-0-0-8-0-0-8-8-----|
A|--------------------------------|---------------------------------------|
D|--------------------------------|---------------------------------------|

Guitar 1 repeats Fig.1 for 3 times but leave the last part out the 3rd time.

With the 2nd time, GUitar 2 kick in

(Fig.2)
E|-0----------------------------0-0---------------------------------------|
B|-0----------------------------0-0---------------------------------------|
G|-0----------------------------0-0---------------------------------------|
D|------------------------------------------------------------------------|
A|------------------------------------------------------------------------|
D|------------------------------------------------------------------------|
                                . .

E|-0----------------------------0-0----5--5--5----------------------------|
B|-0----------------------------0-0----5--5--5----------------------------|
G|-0----------------------------0-0----5--5--5----------------------------|
D|------------------------------------------------------------------------|
A|------------------------------------------------------------------------|
D|------------------------------------------------------------------------|
                                . .    .  .  .

Guitar 2 repeats Fig.2 2 times

 Chorus (Fig.3)
E|------------------------------------------------------------------------|
B|------------------------------------------------------------------------|
G|------------------------------------------------------------------------|
D|------------------------------------------------------------------------|
A|------------------------------------------------------------------------|
D|-0---7-0-0-8-0-0-10-0-0-8-0-0-7-7---0---7-0-0-8-0-0-10-0-0-8-0-0-7------|

E|------------------------------------------------------------------------|
B|------------------------------------------------------------------------|
G|------------------------------------------------------------------------|
D|------------------------------------3\2---3\2-------8\7---8\7-----------|
A|------------------------------------3\2---3\2-------8\7---8\7-----------|
D|-0---7-0-0-8-0-0-10-0-0-8-0-0-7-0-0-3\2-0-3\2-0-0-0-8\7-0-8\7-0-0-0-----|
                                  . .     .     . . .     .     . . .

Both guitars play Fig.1 for 2 times

 Verse (Fig.4)
E|------------------------------------------------------------------------|
B|------------------------------------------------------------------------|
G|------------------------------------------------------------------------|
D|-0-0---0-0--0-0---0-0---0-0--0-0---0-0---0-0--0-0---0-0---0-0--0-0------|
A|-0-0---0-0--0-0---0-0---0-0--0-0---0-0---0-0--0-0---0-0---0-0--0-0------|
D|-0-0---0-0--0-0---0-0---0-0--0-0---0-0---0-0--0-0---0-0---0-0--0-0------|

Both Guitars play Fig.4 once. Then Guitar 1 continues with Fig.4 and
Guitar 2 palys:

(Fig.5)
E|------------------------------------------------------------------------|
B|------------------------------------------------------------------------|
G|-7-7-7-7-7-7-7-7-7-7-7-7-7-7-7-7-8-8-8-8-8-8-8-8-10-10-10-10-10-10-10-10|
D|-x-x-x-x-x-x-x-x-x-x-x-x-x-x-x-x-x-x-x-x-x-x-x-x-x--x--x--x--x--x--x--x-|
A|-5-5-5-5-5-5-5-5-5-5-5-5-5-5-5-5-5-5-5-5-5-5-5-5-5--5--5--5--5--5--5--5-|
D|------------------------------------------------------------------------|

E|---------------------------------|
B|---------------------------------|
G|-7-7-7-7-7-7-7-7-7-7-7-7-7-7-7-7-|
D|-x-x-x-x-x-x-x-x-x-x-x-x-x-x-x-x-|
A|-5-5-5-5-5-5-5-5-5-5-5-5-5-5-5-5-|
D|---------------------------------|

Then again both guitars play

(Fig.6)
E|------------------|
B|------------------|
G|------------------|
D|-5-5-5--5-5-3-3-3-|
A|-5-5-5--5-5-3-3-3-|
D|-5-5-5--5-5-3-3-3-|

Repeat Chorus, Verse, Fig.6, Chorus

 Bridge
E|------------------------------------------------------------------------|
B|------------------------------------------------------------------------|
G|------------------------------------------------------------------------|
D|-7-7-7-7-7-7-7-7-5-5-5-5-5-5-5-5-7-7-7-7-7-7-7-7-10-10-10-10-5-5-5-5----|
A|-7-7-7-7-7-7-7-7-5-5-5-5-5-5-5-5-7-7-7-7-7-7-7-7-10-10-10-10-5-5-5-5----|
D|-7-7-7-7-7-7-7-7-5-5-5-5-5-5-5-5-7-7-7-7-7-7-7-7-10-10-10-10-5-5-5-5----|

E|------------------------------------------------------------------------|
B|------------------------------------------------------------------------|
G|------------------------------------------------------------------------|
D|-7-7-7-7-7-7-7-7-5-5-5-5-5-5-5-5-3-3-3-3-3-3-3-3-2-2-2-2-2-2-2-2--------|
A|-7-7-7-7-7-7-7-7-5-5-5-5-5-5-5-5-3-3-3-3-3-3-3-3-2-2-2-2-2-2-2-2--------|
D|-7-7-7-7-7-7-7-7-5-5-5-5-5-5-5-5-3-3-3-3-3-3-3-3-2-2-2-2-2-2-2-2--------|
                                                   . . . . 

 Solo
  Just look up jjhand´s tab for this, noway possible to make it better.
  The other guitar plays the verse riff in the background.

Repeat Fig.1 & Fig. 2 combined with 3, Chorus for 2 times

 Outro
E|------------------------------------------------------------------------|
B|------------------------------------------------------------------------|
G|------------------------------------------------------------------------|
D|-0-0---0-0--0-0--0-0--0-0-0-0-0---0-0---0-0--0-0--0-0--0-0-0-0-0--------|
A|-0-0---0-0--0-0--0-0--0-0-0-0-0---0-0---0-0--0-0--0-0--0-0-0-0-0--------|
D|-0-0---0-0--0-0--0-0--0-0-0-0-0---0-0---0-0--0-0--0-0--0-0-0-0-0--------|
Tap to rate this tab
# A B C D E F G H I J K L M N O P Q R S T U V W X Y Z