Song name
# A B C D E F G H I J K L M N O P Q R S T U V W X Y Z

Godsmack - Come Together tab

d|-----------------------------------|
A|-----------------------------------|
F|-----------------------------------|
C|-----------------------------------|
G|----------------10----7------------|
D|-0--0--10--12----------------------|

d|-----------------------------------|
A|-----------------------------------|
F|-----------------------------------|
C|-----------------------------------|
G|----------------10-----------------|
D|-0--0--10--12----------------------|
Tap to rate this tab
# A B C D E F G H I J K L M N O P Q R S T U V W X Y Z