Song name
# A B C D E F G H I J K L M N O P Q R S T U V W X Y Z

Godsmack - Stress tab

                             Stress - Godsmack
-------------------------------------------------------------------------------
Tabbed by:jtgray
E-mail:jtgray2011@hotmail.com

Tuning:Drop D
               intro main riff
e|----------------------------------------------------------------------------|
B|----------------------------------------------------------------------------|
G|----------------------------------------------------------------------------|
D|----------------------------------------------------------------------------|
A|-7h9999-7h9999-7h9-10-7h9999-7h99-------------------------------------------|
D|-7h9999-7h9999-7h9-10-7h9999-7h99-------------------------------------------|
               chorus
e|----------------------------------------------------------------------------|
B|----------------------------------------------------------------------------|
G|----------------------------------------------------------------------------|
D|-9-9-9-9-9--7-7--12-7-------------------------------------------------------|
A|-7-7-7-7-7--5-5--10-5-------------------------------------------------------|
D|----------------------------------------------------------------------------|
************************************

| /   slide up
| \   slide down
| h   hammer-on
| p   pull-off
| ~   vibrato
| +   harmonic
| x   Mute note
| b   Bend
| pb  Pre-bend
| br  Bend release
| pbr Pre-bend release
| brb Bend release bend

************************************
Tap to rate this tab
 
# A B C D E F G H I J K L M N O P Q R S T U V W X Y Z