Song name
# A B C D E F G H I J K L M N O P Q R S T U V W X Y Z

Godsmack - Releasing The Demons tab

this is my first tab, but i'm pretty sure it's 99% correct

intro x2
D------------------------------------------|--------------------------|
A------------------------------------------|--------------------------|
F------------------------------------------|--------------------------|
C-0--0-0----10/12-12-12-12--13-13-13-13----|-6-6-6--13-13-13-13-13-13-|
G-0--0-0----10/12-12-12-12--13-13-13-13-x3-|-6-6-6--13-13-13-13-13-13-|
C-0--0-0----10/12-12-12-12--13-13-13-13----|-6-6-6--13-13-13-13-13-13-|
PM   . .

verse x4
D--------------------------|----------------------|
A--------------------------|----------------------|
F------7-------------------|----------------------|
C----6------------6--------|---13-12-10-----------|
G--5------------6----------|---13-12-10-----------|
C-------------6------------|---13-12-10-----------|

pre-chorus
D-----------------------------------------------|
A-----------------------------------------------|
F-----------------------------------------------|
C-13-13-13-13-13-12--12-12--6--6-6-6--3--3-3-3--|
G-13-13-13-13-13-12--12-12--6--6-6-6--3--3-3-3--|
C-13-13-13-13-13-12--12-12--6--6-6-6--3--3-3-3--|

D-----------------------------------------------|
A-----------------------------------------------|
F-----------------------------------------------|
C-13-13-13-13-13-12--12-12--3--3-3-3--6--6-6-6--|
G-13-13-13-13-13-12--12-12--3--3-3-3--6--6-6-6--|
C-13-13-13-13-13-12--12-12--3--3-3-3--6--6-6-6--|

D---------------------------------------------------------------|
A---------------------------------------------------------------|
F---------------------------------------------------------------|
C-0-0-0-0-0--0--0-0--3--3-3--6--6-6-6-6--0-0-0-0-0--0--0-0--3~--|
G-0-0-0-0-0--0--0-0--3--3-3--6--6-6-6-6--0-0-0-0-0--0--0-0--3~--|
C-0-0-0-0-0--0--0-0--3--3-3--6--6-6-6-6--0-0-0-0-0--0--0-0--3~--|
PM. . . . .                              . . . . .

chorus x4
D-----------------------------------------|
A-----------------------------------------|
F-----------------------------------------|
C-0--0-0----10/12-12-12-12--13-13-13-13---|
G-0--0-0----10/12-12-12-12--13-13-13-13---|
C-0--0-0----10/12-12-12-12--13-13-13-13---|
PM   . .

verse x4
D--------------------------|----------------------|
A--------------------------|----------------------|
F------7-------------------|----------------------|
C----6------------6--------|---13-12-10-----------|
G--5------------6----------|---13-12-10-----------|
C-------------6------------|---13-12-10-----------|

pre-chorus
D-----------------------------------------------|
A-----------------------------------------------|
F-----------------------------------------------|
C-13-13-13-13-13-12--12-12--6--6-6-6--3--3-3-3--|
G-13-13-13-13-13-12--12-12--6--6-6-6--3--3-3-3--|
C-13-13-13-13-13-12--12-12--6--6-6-6--3--3-3-3--|

D-----------------------------------------------|
A-----------------------------------------------|
F-----------------------------------------------|
C-13-13-13-13-13-12--12-12--3--3-3-3--6--6-6-6--|
G-13-13-13-13-13-12--12-12--3--3-3-3--6--6-6-6--|
C-13-13-13-13-13-12--12-12--3--3-3-3--6--6-6-6--|

D---------------------------------------------------------------|
A---------------------------------------------------------------|
F---------------------------------------------------------------|
C-0-0-0-0-0--0--0-0--3--3-3--6--6-6-6-6--0-0-0-0-0--0--0-0--3~--|
G-0-0-0-0-0--0--0-0--3--3-3--6--6-6-6-6--0-0-0-0-0--0--0-0--3~--|
C-0-0-0-0-0--0--0-0--3--3-3--6--6-6-6-6--0-0-0-0-0--0--0-0--3~--|
PM. . . . .                              . . . . .

bridge pt1 x2
D----------------------------------------|------------------------------|
A----------------------------------------|------------------------------|
F----------------------------------------|------------------------------|
C-0-0-0-0--0-0-0-0-0--0-0-0-0-0----------|-10-10-10--13-13-13-13-13-----|
G-0-0-0-0--0-0-0-0-0--0-0-0-0-0--x11/x3--|-10-10-10--13-13-13-13-13-----|
C-0-0-0-0--0-0-0-0-0--0-0-0-0-0----------|-10-10-10--13-13-13-13-13-----|
PM. . . .  . . . . .  . . . . .
first time thru play x11, second time thru only x3

bridge pt2 x2
D----------------------------------------|---------------------------|
A----------------------------------------|---------------------------|
F----------------------------------------|---------------------------|
C-0-0-0-0--0-0-0-0-0--10-10--13-13-13----|-10-10-10--13-13-13-13-13--|
G-0-0-0-0--0-0-0-0-0--10-10--13-13-13--x3|-10-10-10--13-13-13-13-13--|
C-0-0-0-0--0-0-0-0-0--10-10--13-13-13----|-10-10-10--13-13-13-13-13--|
PM. . . .  . . . . .

pre-chorus
D-----------------------------------------------|
A-----------------------------------------------|
F-----------------------------------------------|
C-13-13-13-13-13-12--12-12--6--6-6-6--3--3-3-3--|
G-13-13-13-13-13-12--12-12--6--6-6-6--3--3-3-3--|
C-13-13-13-13-13-12--12-12--6--6-6-6--3--3-3-3--|

D-----------------------------------------------|
A-----------------------------------------------|
F-----------------------------------------------|
C-13-13-13-13-13-12--12-12--3--3-3-3--6--6-6-6--|
G-13-13-13-13-13-12--12-12--3--3-3-3--6--6-6-6--|
C-13-13-13-13-13-12--12-12--3--3-3-3--6--6-6-6--|

D----------------------------------------------------------------------|
A----------------------------------------------------------------------|
F----------------------------------------------------------------------|
C-0-0-0-0-0--0--0-0--3--3-3--6--6-6-6-6--0-0-0-0-0--0--0-0--3~---6--3--|
G-0-0-0-0-0--0--0-0--3--3-3--6--6-6-6-6--0-0-0-0-0--0--0-0--3~---6--3--|
C-0-0-0-0-0--0--0-0--3--3-3--6--6-6-6-6--0-0-0-0-0--0--0-0--3~---6--3--|
PM. . . . .                              . . . . .

chorus x7
D-----------------------------------------|--------------|
A-----------------------------------------|--------------|
F-----------------------------------------|--------------|
C-0--0-0----10/12-12-12-12--13-13-13-13---|-3-3-0-3-3-0--|
G-0--0-0----10/12-12-12-12--13-13-13-13---|-3-3-0-3-3-0--|
C-0--0-0----10/12-12-12-12--13-13-13-13---|-3-3-0-3-3-0--|
PM   . .

thats the song tabbed from start to finish...enjoy!
Tap to rate this tab
 
# A B C D E F G H I J K L M N O P Q R S T U V W X Y Z