Song name
# A B C D E F G H I J K L M N O P Q R S T U V W X Y Z

Godsmack - Running Blind tab

Running Blind
Godsmack
The Other Side

Intro: Ebm Db(add9)  C

eb|---0---0---0---|---0---0---0---0|---0---0---0---|
Bb|---0---0---0---|---3---3---3---3|---1---1---1---|
Gb|---0---0---0---|---2---2---2---2|---0---0---0---|
Db|---2---2---2---|---0---0---0---0|---2---2---2---|     x8
Ab|---2---2---2---|---0---0---0---0|---3---3---3---|
Eb|---0---0---0---|----------------|---------------|


Verse 1: Ebm Db(add9)  C

eb|---0---0---0---|---0---0---0---0|---0---0---0---|
Bb|---0---0---0---|---3---3---3---3|---1---1---1---|
Gb|---0---0---0---|---2---2---2---2|---0---0---0---|
Db|---2---2---2---|---0---0---0---0|---2---2---2---|     x8
Ab|---2---2---2---|---0---0---0---0|---3---3---3---|
Eb|---0---0---0---|----------------|---------------|

 Chorus: Ab5 Bb5

eb|---0---0---0---0---0---0|---0---0---0---0---0---I
Bb|---0---0---0---0---0---0|---0---0---0---0---0---I
Gb|---2---2---2---2---2---2|---4---4---4---4---4---I    X3 
Db|---2---2---2---2---2---2|---4---4---4---4---4---I
Ab|---0---0---0---0---0---0|---0---0---0---0---0---I
Eb|---0---0---0---0---0---0|---0---0---0---0---0---I

G F#

eb|---3---3---3---3---3|---1---1---1---1---I
Bb|---3---3---3---3---3|---1---1---1---1---I
Gb|---0---0---0---0---0|---2---2---2---2---I
Db|---0---0---0---0---0|---3---3---3---3---I 
Ab|---2---2---2---2---2|---3---3---3---3---I
Eb|---3---3---3---3---3|---1---1---1---1---I

Pre Vere: Ebm D(add9) C

eb|---0---0---0---|---0---0---0---0|---0---0---0---|
Bb|---0---0---0---|---3---3---3---3|---1---1---1---|
Gb|---0---0---0---|---2---2---2---2|---0---0---0---|
Db|---2---2---2---|---0---0---2---2|---2---2---2---|     x4
Ab|---2---2---2---|---0---0---2---2|---3---3---3---|
Eb|---0---0---0---|----------------|---------------|

Verse 2: Ebm D(add9) C

eb|---0---0---0---|---0---0---0---0|---3---3---3---|
Bb|---0---0---0---|---3---3---3---3|---1---1---1---|
Gb|---0---0---0---|---2---2---2---2|---0---0---0---|
Db|---2---2---2---|---0---0---0---0|---2---2---2---|     x8
Ab|---2---2---2---|---0---0---0---0|---3---3---3---|
Eb|---0---0---0---|----------------|---------------|

 Chorus: Ab5 Bb5

eb|---0---0---0---0---0---0|---0---0---0---0---0---I
Bb|---0---0---0---0---0---0|---0---0---0---0---0---I
Gb|---2---2---2---2---2---2|---4---4---4---4---4---I    X3 
Db|---2---2---2---2---2---2|---4---4---4---4---4---I
Ab|---0---0---0---0---0---0|---0---0---0---0---0---I
Eb|---0---0---0---0---0---0|---0---0---0---0---0---I

G F#

eb|---3---3---3---3---3|---1---1---1---1---I
Bb|---3---3---3---3---3|---1---1---1---1---I
Gb|---0---0---0---0---0|---2---2---2---2---I
Db|---0---0---0---0---0|---3---3---3---3---I 
Ab|---2---2---2---2---2|---3---3---3---3---I
Eb|---3---3---3---3---3|---1---1---1---1---I



 Pre Solo :Ebm D(add9) C

eb|---0---0---0---|---0---0---0---0|---3---3---3---|
Bb|---0---0---0---|---3---3---3---3|---1---1---1---|
Gb|---0---0---0---|---2---2---2---2|---0---0---0---|
Db|---2---2---2---|---0---0---2---2|---2---2---2---|     x4
Ab|---2---2---2---|---0---0---2---2|---3---3---3---|
Eb|---0---0---0---|----------------|---------------|

Solo (Rhythm) 

eb|---0---0---0---|---0---0---0---0|---3---3---3---|
Bb|---0---0---0---|---3---3---3---3|---1---1---1---|
Gb|---0---0---0---|---2---2---2---2|---0---0---0---|
Db|---2---2---2---|---0---0---2---2|---2---2---2---|     x8
Ab|---2---2---2---|---0---0---2---2|---3---3---3---|
Eb|---0---0---0---|----------------|---------------|

 Chorus: Ab5 Bb5

eb|---0---0---0---0---0---0|---0---0---0---0---0---I
Bb|---0---0---0---0---0---0|---0---0---0---0---0---I
Gb|---2---2---2---2---2---2|---4---4---4---4---4---I    X3 
Db|---2---2---2---2---2---2|---4---4---4---4---4---I
Ab|---0---0---0---0---0---0|---0---0---0---0---0---I
Eb|---0---0---0---0---0---0|---0---0---0---0---0---I

G F#

eb|---3---3---3---3---3|---1---1---1---1---I
Bb|---3---3---3---3---3|---1---1---1---1---I
Gb|---0---0---0---0---0|---2---2---2---2---I
Db|---0---0---0---0---0|---3---3---3---3---I 
Ab|---2---2---2---2---2|---3---3---3---3---I
Eb|---3---3---3---3---3|---1---1---1---1---I

Pre Verse: Ebm D(aad9) C

eb|---0---0---0---|---0---0---0---0|---3---3---3---|
Bb|---0---0---0---|---3---3---3---3|---1---1---1---|
Gb|---0---0---0---|---2---2---2---2|---0---0---0---|
Db|---2---2---2---|---0---0---2---2|---2---2---2---|     x4
Ab|---2---2---2---|---0---0---2---2|---3---3---3---|
Eb|---0---0---0---|----------------|---------------|

I'm Running Blind x

eb|---0---0---0---|---0---0---0---0|---3---3---3---|
Bb|---0---0---0---|---3---3---3---3|---1---1---1---|
Gb|---0---0---0---|---2---2---2---2|---0---0---0---|
Db|---2---2---2---|---0---0---2---2|---2---2---2---|     x8
Ab|---2---2---2---|---0---0---2---2|---3---3---3---|
Eb|---0---0---0---|----------------|---------------|
Tap to rate this tab
# A B C D E F G H I J K L M N O P Q R S T U V W X Y Z