Song name
# A B C D E F G H I J K L M N O P Q R S T U V W X Y Z

Godsmack - Spral tab

Spiral
--------

song-Spiral
band-Godsmack
album-Awake
year-2000

.-palm mute
H-hammer on
P-pull off
/-slide

tuning
C,G,C,F,A,D

the intro really starts out
in the journey.so here is the full thing

intro/The Journey
|14-17-15-14---14-17-15-14-12---|
|-------------------------------|
|-------------------------------|
|-------------------------------|
|-------------------------------|
|-------------------------------|

verse
|--------------------------------------------|
|--------------------------------------------|
|--------------------------------------------|
|--------------------------------------------|
|-----------------0-----------------0--------|
|0-13-0-0-13-12-0----0-13-0-0-13-12----------|
PM-----------------------------------|

pre-chorus
|--------------------------------------------|
|--------------------------------------------|
|--------------------------------------------|
|--------------------------------------------|
|-----------------0-----------------0--------|
|0-13-0-0-13-12-0----0-13-0-0-13-12----------|
PM-----------------------------------|

chorus
|----------------------------------------------|
|----------------------------------------------|
|----------------------------------------------|
|5-5-5-5-0-1-1-1-1-3---10-----8-7--------------|
|5-5-5-5-0-1-1-1-1-3-0--8-0-0-6-5-6------------|
|5-5-5-5-0-1-1-1-1-3-0----0-0-----6------------|

solo
|-------------------------------------------------------|
|--10---11---10h11p10-------10---13---10h11p10----------|
|---------------------12-----------------------12-------|
|0----0----0--------------0----0----0-------------------|
|-------------------------------------------------------|
|-------------------------------------------------------|

|-------------------------------------------------------|
|--10---9h10p9-7-9-7-5/7-7------------------------------|
|-------------------------------------------------------|
|0----0-------------------------------------------------|
|-------------------------------------------------------|
|-------------------------------------------------------|

thats all you need to know just figure out how many
times you need to play em.
Tap to rate this tab
# A B C D E F G H I J K L M N O P Q R S T U V W X Y Z