Guitaretab - guitar tabs
Song name
# A B C D E F G H I J K L M N O P Q R S T U V W X Y Z

Godsmack - Im Doing The Best That I Can tab

Tabbed by- Chris Healey
Tuning- Drop D (D A D G B E)
I think im the first to tab the whole song, im pretty sure. Its real easy, I tabbed the 
thing in like 15 mins.
I tabbed it by ear, so I'm pretty sure its right, any corrections, email me dudedaddy01@yahoo.com

Intro

e|-----------------------------------------------------------------------|
B|-----------------------------------------------------------------------|
G|-----------------------------------------------------------------------|
D|0-0--17-17-17----------------------------------------------------------|X7
A|0-0--------------------------------------------------------------------|
D|0-0--------------------------------------------------------------------|


e|-----------------------------------------------------------------------|
B|-----------------------------------------------------------------------|
G|-----------------------------------------------------------------------|
D|0-0--------------------------------------------------------------------|
A|0-0--------------------------------------------------------------------|
D|0-0--------------------------------------------------------------------|

Verse 1

e|-----------------------------------------------------------------------|
B|-----------------------------------------------------------------------|
G|-----------------------------------------------------------------------|
D|0-0--17-17-17----------------------------------------------------------|X8
A|0-0--------------------------------------------------------------------|
D|0-0--------------------------------------------------------------------|

Pre-Chorus

e|-----------------------------------------------------------------------|
B|-----------------------------------------------------------------------|
G|-----------------------------------------------------------------------|
D|0-----4-----4-4--------------------------------------------------------|
A|0-----4-----4-4--------------------------------------------------------|
D|0-----4-----4-4--------------------------------------------------------|

e|-----------------------------------------------------------------------|
B|-----------------------------------------------------------------------|
G|-----------------------------------------------------------------------|
D|0-----8-----4-4---2----------------------------------------------------|
A|0-----8-----4-4---2----------------------------------------------------|
D|0-----8-----4-4---2----------------------------------------------------|

Chorus
[ Tab from: http://www.guitaretab.com/g/godsmack/72042.html ]
e|-----------------------------------------------------------------------|
B|-----------------------------------------------------------------------|
G|-----------------------------------------------------------------------|
D|0--4-3-2---------------------------------------------------------------|X3
A|0--4-3-2---------------------------------------------------------------|
D|0--4-3-2---------------------------------------------------------------|

e|-----------------------------------------------------------------------|
B|-----------------------------------------------------------------------|
G|-----------------------------------------------------------------------|
D|3-3--------------------------------------------------------------------|
A|3-3--------------------------------------------------------------------|
D|3-3--------------------------------------------------------------------|

Repeat Verse, exept X8, it's X11, then


e|-----------------------------------------------------------------------|
B|-----------------------------------------------------------------------|
G|-----------------------------------------------------------------------|
D|0-0--17--4-3-2---------------------------------------------------------|
A|0-0------4-3-2---------------------------------------------------------|
D|0-0------4-3-2---------------------------------------------------------|

Repeat Pre Chorus (X2) and Chorus

Bridge

e|-----------------------------------------------------------------------|
B|-----------------------------------------------------------------------|
G|-----------------------------------------------------------------------|
D|17-0-0-----------------------------------------------------------------|X8
A|---0-0-----------------------------------------------------------------|
D|---0-0-----------------------------------------------------------------|

Outro

e|-----------------------------------------------------------------------|
B|-----------------------------------------------------------------------|
G|-----------------------------------------------------------------------|
D|0--17-17-17------------------------------------------------------------|X7
A|0----------------------------------------------------------------------|
D|0----------------------------------------------------------------------|

e|-----------------------------------------------------------------------|
B|-----------------------------------------------------------------------|
G|-----------------------------------------------------------------------|
D|17-0-0-----------------------------------------------------------------|
A|---0-0-----------------------------------------------------------------|
D|---0-0-----------------------------------------------------------------|

Thats it. There you go. All credit goes to me. Any questions, comments, or corrections 
sraight to dudedaddy01@yahoo.com
Related for Im Doing The Best That I Can tab
Advertisement will be closed in 10 seconds