Song name
# A B C D E F G H I J K L M N O P Q R S T U V W X Y Z

Godsmack - Livin In Sin tab

Godsmack - IV - Livin in Sin

Solo:

3:10

Distortion
e|------------------------------------------------------------------------|
B|------------------------------------------------------------------------|
G|--------------------------------------------17--------------------------|
D|--18b~-14b~--14b~-(\14-12-10/-14)-10/---19~----17-15-12-15-15-12-10-12--|
A|------------------------------------------------------------------------|
D|------------------------------------------------------------------------|

e|------------------------------------------------------------|
B|------------------------------------------------------------|
G|--/14~~--14-14-13-13-12~-10h12-10--10/12-10----10/12-10-----|
D|--------------------------------------------12----------12--|
A|------------------------------------------------------------|
D|------------------------------------------------------------|

e|------------------------------------------------------------------|
B|--13b15r13-/15-14b15-14-13-10-10/15~-13-15-17-13/15~-10/17-15-17--|
G|------------------------------------------------------------------|
D|------------------------------------------------------------------|
A|------------------------------------------------------------------|
D|------------------------------------------------------------------|

e|--17~~~--16-16\-13-15-13-16-16\13-(10h12-8h10)--------------------|
B|----------------------------------------------14b15~--15-13-------|
G|------------------------------------------------------------14----|
D|------------------------------------------------------------------|
A|------------------------------------------------------------------|
D|------------------------------------------------------------------|

e|----------------------------------------------|
B|----------------------------------------------|
G|--(10h12-14-12-10-12-10)-10h12--10------------|
D|------------------------------------12--10----|
A|----------------------------------------------|
D|----------------------------------------------|

e|--------------------|
B|--------------------|
G|--9999--9\----------|
D|--------------------|
A|------------9\------|
D|--------------------|

3:42

| /  slide up
| \  slide down
| h  hammer-on
| p  pull-off
| ~  vibrato
| +  harmonic
| x  mute note
| () fast play

R.G.P.
Tap to rate this tab
# A B C D E F G H I J K L M N O P Q R S T U V W X Y Z