Song name
# A B C D E F G H I J K L M N O P Q R S T U V W X Y Z

Godsmack - Voodoo Too tab

voodoo too (low to high) DADGBE
this song is not in order it skips to       *=palm mute     /=slide down   o=open toe 
pedal
interlude after the chorus and then the     p=pull off      \=slide up     +=closed toe 
pedal
solo                                        h=hammer on   p.s=pick scrape
intro (clean)  w/wah-wah                    T=trem pick     ^=bend
--------------|                             <>=harmonics  fdbk=feed back
--------------|
--------------|
-0-0--(0)-----|
------------0-|
--------------|
   o  fdbk
       +

intro 2 (clean) w/wah-wah
--13-(13)-(13)-(13)-(13)-(13)-12-(12)-(12)-(12)-(12)---------------------------------------------------------------------|
-----------------------------------------------------13-(13)-(13)-(13)-(13)-(13)-(13)-(13)-(13)-(13)-(13)-(13)-(13)-(13)-|
-------------------------------------------------------------------------------------------------------------------------|
-------------------------------------------------------------------------------------------------------------------------|
-------------------------------------------------------------------------------------------------------------------------|
-------------------------------------------------------------------------------------------------------------------------|
o  +   o    +    o    +    o   +   o    +    o    +       o    +    o    +    o    +    
   +    o    +    O    +

intro 3 (clean) w/wah-wah
------------10-------10----10-------------------------------------|
-(13)\-8/10----10-10----10----10----------------------------------|
------------------------------------10-12-10-(10)^----------------|
---------------------------------12----------------12-10-12-(12)\-|
------------------------------------------------------------------|
------------------------------------------------------------------|
                               o                              +

verse (dist) 4x
-------------0-------------|
-----3-----3---3-----------|
---1-----1-----------------|
-------------------3---3---|
-------------------------3-|
-0-----0---------3---3-----|

verse cont (dist)
-----------------------------------------------------|
-----------------------------------------------------|
-----------10------------------------9---------------|
-----10---------10---10---10-----9-------9-3-3-3-3-3-|
---8----8-----8----8----8------7---7---7---3-3-3-3-3-|
-8---------------------------7-------------3-3-3-3-3-|

chorus (dist)
----------------------------------------------------|
----------------------------------------------------|
----------------------------------------------------|
----------------------------------------------------|
-------------5---------------5---5-----5------------|
-0-0-3-2-0-0---0-3-2-0-2-3-3---3---3-2----2-2-3-2-0-|

chorus cont (dist)
----------------------------------------------------|
----------------------------------------------------|
----------------------------------------------------|
----------------------------------------------------|
-------------5---------------5---5-----5------------|
-0-0-3-2-0-0---0-3-2-0-2-3-3---3---3-2----2-2-3-2-0-|


interlude (dist) w/wah-wah
--10--------------------------10----10---------------------------------------------|
--10--------------------10-13----13----13-10-10----10------------------------------|
--10-----------------10-------------------------12----12-10h12-(12)-10^--------<7>-|
------------------------------------------------------------------------12-<7>-----|
-----------------------------------------------------------------------------------|
-----------------------------------------------------------------------------------|
o  + o + o + o + o +  o

verse (dist) 4x
-------------0-------------|
-----3-----3---3-----------|
---1-----1-----------------|
-------------------3---3---|
-------------------------3-|
-0-----0---------3---3-----|

verse cont (dist)
-----------------------------------------------------|
-----------------------------------------------------|
-----------10------------------------9---------------|
-----10---------10---10---10-----9-------9-3-3-3-3-3-|
---8----8-----8----8----8------7---7---7---3-3-3-3-3-|
-8---------------------------7-------------3-3-3-3-3-|

chorus (dist)
----------------------------------------------------|
----------------------------------------------------|
----------------------------------------------------|
----------------------------------------------------|
-------------5---------------5---5-----5------------|
-0-0-3-2-0-0---0-3-2-0-2-3-3---3---3-2----2-2-3-2-0-|

chorus cont (dist)
----------------------------------------------------|
----------------------------------------------------|
----------------------------------------------------|
----------------------------------------------------|
-------------5---------------5---5-----5------------|
-0-0-3-2-0-0---0-3-2-0-2-3-3---3---3-2----2-2-3-2-0-|

chorus cont (dist)
----------------------------------------------------|
----------------------------------------------------|
----------------------------------------------------|
----------------------------------------------------|
-------------5---------------5---5-----5------------|
-0-0-3-2-0-0---0-3-2-0-2-3-3---3---3-2----2-2-3-2-0-|

chorus cont (dist)
----------------------------------------------------|
----------------------------------------------------|
----------------------------------------------------|
----------------------------------------------------|
-------------5---------------5---5-----5------------|
-0-0-3-2-0-0---0-3-2-0-2-3-3---3---3-2----2-2-3-2-0-|


interlude 2 (dist) w/wah-wah
------------------|
------------------|
------------------|
-(0)---(0)----(0)-|
------------------|
------------------|
 fdbk         fdbk

solo w/wah-wah
----------------------------------------------------------------------------------------|
----------------------------------------------------------------------------------------|
----------------------------------------10----------------------------------------------|
-10-10-10h12-12-(12)\-10-10-10-10-10h12----12-10h12-10-10-9-9---------------------------|
--------------------------------------------------------------11^-11^-(11)-(11)-(11)\5\-|
----------------------------------------------------------------------------------------|
                       *  *

solo cont w/wah-wah
------------------------------------------------------------------------|
----------10------------------------------------------------------------|
----10-12----13-12-10----------12^-(12)-10----10^-10-(10)\-12^-(12)^-12-|
-12-------------------12-(12)\-------------12---------------------------|
------------------------------------------------------------------------|
------------------------------------------------------------------------|

solo cont w/wah-wah
-----------------------------------------------------------------------------------------|
-10----------------10----13p10----10-----------------------------------------------------|
----13-12-10-12-13----13-------13----13p12-10----12p10----10^-10-------------------------|
----------------------------------------------12-------12--------12p10----10-12-10-(12)\-|
-----------------------------------------------------------------------12----------------|
-----------------------------------------------------------------------------------------|

solo cont w/wah-wah
-----------10----------------10-----------------------------------10-----10----------------|
-13^-(13)^----13-10-13p10-------13p10------------------------------------------------------|
--------------------------13----------12h13p12p10----10-12^-(12)^-----12----12p10----10----|
--------------------------------------------------12------------------------------12----12-|
-------------------------------------------------------------------------------------------|
-------------------------------------------------------------------------------------------|

solo cont w/wah-wah
------------------12^-12-10----------------10-----10-------------------------------------------|
----------------------------13-10h13p10--------------------------------------------------------|
-10h12-10-(10)\5\-----------------------13-----13----13p12p10----10-12^-(12)-10-12-13-13p12-10-|
--------------------------------------------------------------12-------------------------------|
-----------------------------------------------------------------------------------------------|
-----------------------------------------------------------------------------------------------|
                                                                                    T
solo cont w/wah-wah
-----------------------------------------------------------------------------------------------------|
-----------------------------------------------------------13----13-13-15^-(15)^-(15)-13-15-15^-(15)-|
-13-12-10-13-12-10-13-12p10----10-12p10----10----------/14----14-------------------------------------|
----------------------------12----------12----12-(12)\-----------------------------------------------|
-----------------------------------------------------------------------------------------------------|
-----------------------------------------------------------------------------------------------------|
  T  T  T  T  T  T  T

solo cont w/wah-wah
-----------------10----10-12-12^-12^-(12)p10-12-10-12-10------------------------------------------|
-(15)\-13^-(13)^----13-----------------------------------13^-13^--(13)-----------------(13)-------|
--------------------------------------------------------------------------------------------------|
--------------------------------------------------------------------------------------------------|
--------------------------------------------------------------------------------------------------|
--------------------------------------------------------------------------------------------------|
                                                                  w/bar  o + o + o + o   +o + o +

solo cont w/wah-wah
-----------------------|
-(13)\10\8-0-0---------|
-----------0-0---------|
-----------0-0-(0)-(0)-|
-----------------------|
-----------------------|
               fdbk---

chorus (dist)
----------------------------------------------------|
----------------------------------------------------|
----------------------------------------------------|
----------------------------------------------------|
-------------5---------------5---5-----5------------|
-0-0-3-2-0-0---0-3-2-0-2-3-3---3---3-2----2-2-3-2-0-|

chorus cont (dist)
----------------------------------------------------|
----------------------------------------------------|
----------------------------------------------------|
----------------------------------------------------|
-------------5---------------5---5-----5------------|
-0-0-3-2-0-0---0-3-2-0-2-3-3---3---3-2----2-2-3-2-0-|

chorus cont (dist)
----------------------------------------------------|
----------------------------------------------------|
----------------------------------------------------|
----------------------------------------------------|
-------------5---------------5---5-----5------------|
-0-0-3-2-0-0---0-3-2-0-2-3-3---3---3-2----2-2-3-2-0-|

chorus 2 (dist)
--------------------------------------------|
--------------------------------------------|
--------------------------------------------|
--------------------------------------------|
-------------5---------------5---5-----5----|
-0-0-3-2-0-0---0-3-2-0-2-3-3---3---3-2----2-|

chorus 2 cont (dist)
------------------|
------------------|
------------------|
---------/3-/3-/3-|
-----5---/3-/3-/3-|
-(2)---2-/3-/3-/3-|

outro
------------0-0-0---------------------------|
------3-(3)-------3-----3-(3)----3------3---|
----1---------------1--------------1---1--1-|
-0--------------------0-------0-------------|
--------------------------------------------|
-------------------------------------0------|

outro 2 (dist) 2x
-------------0-------------|
-----3-----3---3-----------|
---1-----1-----------------|
-------------------3---3---|
-------------------------3-|
-0-----0---------3---3-----|
Tap to rate this tab
# A B C D E F G H I J K L M N O P Q R S T U V W X Y Z