Guitaretab - guitar tabs
Song name
# A B C D E F G H I J K L M N O P Q R S T U V W X Y Z

Godspeed You Black Emperor - Blaise Bailey Finnegan Iii tab

Godspeed You Black Emperor
Blaise Bailey Finnegan III
(BBF III)
This is the version that was arranged by Ghim (http://ca.youtube.com/user/gihm). The 
can be seen here: http://ca.youtube.com/watch?v=tJtdUgnmyF8 .

This is the best and only version I have found arranged for ONE guitar, so I decided to 
it out for everyone to enjoy!
THE TIMING IS NOT PERFECT ESPECIALLY THE STRUMMING PARTS (watch vid for timing!!!!)

So the tuning he is:
Tune the e up to   Gb]
Tune the b down to Bb]
Tune the G down to Gb]
Tune the D down to Db]
Tune the A down to Ab]
And E stays        E ]


He then places a Capo on the 2nd fret. I will tab it out as though there is no capo (eg. 
fret means 7th fret, NOT 7th from capo!)
Gb]-2-----|----------------|---------------|-------------|---------------|
Bb]-7-----|----7-----7-7-7-|-----7---7-7-7-|---7---7-7-7-|----7---7-7-7--|
Gb]-7-----|----7-----7-7-7-|-----7---7-7-7-|---7---7-7-7-|----7---7-7-7--|
Db]-9-----|--9-------------|--9------------|--9----------|--9------------|
Ab]-2-----|-2------2-------|-2-----2-------|-2---2-------|-2----2--------|
E ]-------|----------------|---------------|-------------|---------------|

Gb]------|----------------|----------------|-------------|---------------|
Bb]-3----|-----3----7-7-7-|-----3----7-7-7-|-------------|---------------|
Gb]-4----|-----4----4-4-4-|-----4----4-4-4-|-4-----------|-4-------------|
Db]-5----|---5------------|---5------------|-4---4--4--4-|-4---4--4--4---|
Ab]-2----|-2------2-------|-2------2-------|-2--2--2--2--|-2--2--2--2----|
E ]------|----------------|----------------|-------------|---------------|

Gb]------------|------------|-------------|-------------|----------------|
Bb]-7--7-----7-|-7--7-----7-|-7--7------7-|-7--7------7-|-7--7------7----|
Gb]-6----6---6-|-6---6----6-|-7----7----7-|-7----7----7-|-7----7----7----|
Db]-4------4-4-|-4-----4--4-|-4------4--4-|-9------9--9-|-9------9--9----|
Ab]-2--------2-|-2--------2-|-2---------2-|-2---------2-|-2---------2----|
E ]------------|------------|-------------|-------------|----------------|

Gb]------------|------------|-------------|-------------|----------------|
Bb]-7-7--7-7---|-x-x-x-7-7--|-7-7-7-7-7-7-|-------------|----------------|
Gb]-7-7--7-7---|-x-x-x-7-7--|-7-7-7-7-7-7-|-4-----------|-4--------------|
Db]-9-11-9-7---|-5-5-5-5-5--|-5-5-5-5-5-5-|-4---4--4--4-|-4---4--4--4----|
Ab]-2-2--2-2---|-2-2-2-2-2--|-2-2-2-2-2-2-|-2--2--2--2--|-2--2--2--2-----|
E ]------------|-------------|------------|-------------|----------------|

Gb]------------|------------|-------------|-------------|----------------|
Bb]-7--7-----7-|-7--7-----7-|-7--7------7-|-7--7------7-|-7--7------7----|
Gb]-6----6---6-|-6---6----6-|-7----7----7-|-7----7----7-|-7----7----7----|
Db]-4------4-4-|-4-----4--4-|-4------4--4-|-9------9--9-|-9------9--9----|
Ab]-2--------2-|-2--------2-|-2---------2-|-2---------2-|-2---------2----|
E ]------------|------------|-------------|-------------|----------------|

Gb]------------|------------|-------------|-------------|----------------|
Bb]-7-7--7-7---|-x-x-x-7-7--|-7-7-7-7-7-7-|-------------|-7-7-7-7-7-7----|
Gb]-7-7--7-7---|-x-x-x-7-7--|-7-7-7-7-7-7-|-4-4-4-4-4-4-|-6-6-6-6-6-6----|
Db]-9-11-9-7---|-5-5-5-5-5--|-5-5-5-5-5-5-|-4-4-4-4-4-4-|-4-4-4-4-4-4----|
Ab]-2-2--2-2---|-2-2-2-2-2--|-2-2-2-2-2-2-|-2-2-2-2-2-2-|-2-2-2-2-2-2----|
E ]------------|------------|-------------|-------------|----------------|

Gb]----------|-----------------|-14-14-14-14-14-|-12-12-12-12-|-11-11-11-11-|
Bb]7-7-7-7-7-|-7--7--7---------|-10-10-10-10-10-|-10-10-10-10-|-10-10-10-10-|
Gb]7-7-7-7-7-|-7--9--7-9-7-6---|-11-11-11-11-11-|-11-11-11-11-|-11-11-11-11-|
Db]9-9-9-9-9-|-9--9--9---------|-12-12-12-12-12-|-12-12-12-12-|-12-12-12-12-|
Ab]2-2-2-2-2-|-2--2--2---------|-2--2--2--2--2--|-2--2--2--2--|-2--2--2--2--|
E ]----------|-----------------|-2--2--2--2--2--|-2--2--2--2--|-2--2--2--2--|

Gb]-14-14-14-14-14-|-12-12-12-12-|-11-11-11-11-|-------------|-------------|
Bb]-10-10-10-10-10-|-10-10-10-10-|-10-10-10-10-|-------------|-7-7-7-7-7-7-|
Gb]-11-11-11-11-11-|-11-11-11-11-|-11-11-11-11-|-4-4-4-4-4-4-|-6-6-6-6-6-6-|
Db]-12-12-12-12-12-|-12-12-12-12-|-12-12-12-12-|-4-4-4-4-4-4-|-4-4-4-4-4-4-|
Ab]-2--2--2--2--2--|-2--2--2--2--|-2--2--2--2--|-2-2-2-2-2-2-|-2-2-2-2-2-2-|
E ]-2--2--2--2--2--|-2--2--2--2--|-2--2--2--2--|-------------|-------------|

Gb]-----------|----------------|-----------------------|-2-----------|
Bb]-7-7-7-7-7-|-7-7-7-7-7-7----|-5--2-----5--2---------|-2-----------|
Gb]-7-7-7-7-7-|-9-9-7-7-9-9-9-7|-6----6---6----6-------|-9-----------|
Db]-9-9-9-9-9-|-9-9-9-9-9-9----|-7-----7--7------7--5--|-11----------|
Ab]-2-2-2-2-2-|-2-2-2-2-2-2----|-2--------2---------2--|-------------|
E ]-----------|----------------|-----------------------|-------------|

Were Halfway There! This is the where the slow part starts (about 2:24 in video).

Gb]-14---------------|-----------------|-14---------------|------------------|
Bb]-10---------------|-7---------------|-10---------------|-3----------------|
Gb]-11---------------|-7---------------|-11---------------|-4----------------|
Db]-12---------------|-5---------------|-12---------------|-5----------------|
Ab]-2----------------|-2---------------|-2----------------|-2----------------|
E ]----2-2--2-2--2-2-|---2-2--2-2--2-2-|----2-2--2-2--2-2-|---2-2--2-2--2-2--|
[ Tab from: http://www.guitaretab.com/g/godspeed-you-black-emperor/177845.html ]
Gb]-14--------------|-2--2--2--2--2----|-14------------- -|-2--2--2--2--2----|
Bb]-10-10-10-10-10--|-2--2--2--2--2----|-10-10-10-10-10---|-2--2--2--2--2----|
Gb]-11-11-11-11-11--|-9--9--9--9--9----|-11-11-11-11-11---|-9--9--9--9--9----|
Db]-12-12-12-12-12--|-11-11-11-11-11---|-12-12-12-12-12---|-11-11-11-11-11---|
Ab]-2--2--2--2--2---|-2--2--2--2--2----|-2--2--2--2--2----|-2--2--2--2--2----|
E ]-----------------|------------------|------------------|------------------|

Gb]----------------|-- -14-14-14-14-14-14-|-12-12-12-12-12-|
Bb]-7-7-7-7-7-7-7--|-- -10-10-10-10-10-10-|-10-10-10-10-10-|
Gb]-7-7-7-7-7-7-7--|-- -11-11-11-11-11-11-|-11-11-11-11-11-|
Db]-5-5-5-5-5-5-5--|-- -12-12-12-12-12-12-|-12-12-12-12-12-|
Ab]-2-2-2-2-2-2-2--|-- -2--2--2--2--2--2--|-2--2--2--2--2--|
E ]-------------- --|---------------------|----------------|

Gb]-11-11-11-11-11-|-14-14-14-14-14-14--|-12-12-12-12-12-12-|-11-11-11-11-11-|
Bb]-10-10-10-10-10-|-10-10-10-10-10-10--|-10-10-10-10-10-10-|-10-10-10-10-10-|
Gb]-11-11-11-11-11-|-11-11-11-11-11-11--|-11-11-11-11-11-11-|-11-11-11-11-11-|
Db]-12-12-12-12-12-|-12-12-12-12-12-12--|-12-12-12-12-12-12-|-12-12-12-12-12-|
Ab]-2--2--2--2--2--|-2--2--2--2--2--2---|-2--2--2--2--2--2--|-2--2--2--2--2--|
E ]----------------|--------------------|-------------------|----------------|

Gb]-14-14-14-14-14-14--|-12-12-12-12-12-12-|-11-11-11-11-11-|-14-14-14-14-14-|
Bb]-10-10-10-10-10-10--|-10-10-10-10-10-10-|-10-10-10-10-10-|-10-10-10-10-10-|
Gb]-11-11-11-11-11-11--|-11-11-11-11-11-11-|-11-11-11-11-11-|-11-11-11-11-11-|
Db]-12-12-12-12-12-12--|-12-12-12-12-12-12-|-12-12-12-12-12-|-12-12-12-12-12-|
Ab]-2--2--2--2--2--2---|-2--2--2--2--2--2--|-2--2--2--2--2--|-2--2--2--2--2--|
E ]--------------------|-------------------|----------------|----------------|

Gb]-12-12-12-12-12-|-------------|--------------------|---This Part------|
Bb]-10-10-10-10-10-|-7-7-7-7-7-7-|-7-7--7--7-----------|----Repeats------|
Gb]-11-11-11-11-11-|-7-7-7-7-7-7-|-9-11-9--7-----------|-----Four--------|
Db]-10-10-10-10-10-|-9-9-9-9-9-9-|-9-9--9--9----------|-----times--------|
Ab]-2--2--2--2--2--|-2-2-2-2-2-2-|-2-2--2--2----------|------------------|
E ]----------------|-------------|--------------------|------------------|

Gb]-------------14-|-------------2--|--------------2-|--------------2-| Repeat
Bb]-------------10-|-------------2--|--------------7-|--------------5-| Section
Gb]-------------11-|-------------9--|--------------7-|--------------6-| Twice
Db]-------------12-|-------------11-|--------------9-|--------------7-|
Ab]-2-2-2-2-2-2-2--|-2-2-2-2-2-2-2--|--2-2-2-2-2-2-2-|--2-2-2-2-2-2-2-|
E ]----------------|----------------|----------------|----------------|

This is the trickiest part of the song (watch vid for strumming/timing):
Gb]-2--11--2--2--11-|-2--11--2--2--11-|-2--11--2--2--11--|-14-14-14-14-14-14-|
Bb]-10-----10-10----|-2------2--2-----|-10-----10-10-----|-10-10-10-10-10-10-|
Gb]-11-----11-11----|-9------9--9-----|-11-----11-11-----|-11-11-11-11-11-11-|
Db]-12-----12-12----|-11-----11-11----|-12-----12-12-----|-12-12-12-12-12-12-|
Ab]-2------2--2-----|-2------2--2-----|-2------2--2------|-2--2--2--2--2--2--|
E ]-----------------|-----------------|------------------|-------------------|
Repeat 4 times

Gb]-------------|-------------|------------|---------------|-2--2--2--2--2--|
Bb]-------------|-7-7-7-7-7-7-|-7-7-7-7-7--|-7--7--7-7-7-7-|-10-10-10-10-10-|
Gb]-4-4-4-4-4-4-|-6-6-6-6-6-6-|-7-7-7-7-7--|-7--9--7-9-7-6-|-11-11-11-11-11-|
Db]-4-4-4-4-4-4-|-4-4-4-4-4-4-|-9-9-9-9-9--|-9--9--9-9-9-9-|-12-12-12-12-12-|
Ab]-2-2-2-2-2-2-|-2-2-2-2-2-2-|-2-2-2-2-2--|-2--2--2-2-2-2-|-2--2--2--2--2--|
E ]-------------|-------------|------------|---------------|----------------|

Gb]-2--2--2--2--|-2--2--2--2--2--|-14-14-14-14-|
Bb]-2--2--2--2--|-10-10-10-10-10-|-10-10-10-10-|
Gb]-9--9--9--9-|-11-11-11-11-11-|-11-11-11-11-|
Db]-11-11-11-11-|-12-12-12-12-12-|-12-12-12-12-|
Ab]-2--2--2--2--|-2--2--2--2--2--|-14-14-14-14-|
E ]-------------|----------------|-------------|

Gb]-14-14-14-14-14-14-|-------------|-2--2--2--2--2--2--|-------------|
Bb]-10-10-10-10-10-10-|-------------|-2--2--2--2--2--2--|-------------|
Gb]-11-11-11-11-11-11-|-------------|-9--9--9--9--9--9--|-------------|
Db]-12-12-12-12-12-12-|-------------|-11-11-11-11-11-11-|-------------|
Ab]-2--2--2--2--2--2--|-2-2-2-2-2-2-|-2--2--2--2--2--2--|-2-2-2-2-2-2-|
E ]-------------------|-------------|-------------------|-------------|

Gb]-2-2-2-2-2-2-|-------------|-2-2-2-2-2-2----|
Bb] -7-7-7-7-7-7-|-------------|-5-5-5-5-5-5---|
Gb]-7-7-7-7-7-7-|-------------|-6-6-6-6-6-6----|
Db]-9-9-9-9-9-9-|-------------|-7-7-7-7-7-7----|
Ab]-2-2-2-2-2-2-|-2-2-2-2-2-2-|-2-2-2-2-2-2----|
E ]-------------|-------------|----------------|

Gb]-14-14-14-14-14-14-|-------------|-2--2--2--2--2--2--|----------------|
Bb]-10-10-10-10-10-10 -|-------------|-2--2--2--2--2--2--|---------------|
Gb]-11-11-11-11-11-11-|-------------|-9--9--9--9--9--9--|----------------|
Db]-12-12-12-12-12-12-|-------------|-11-11-11-11-11-11-|----------------|
Ab]-2--2--2--2--2--2--|-2-2-2-2-2-2-|-2--2--2--2--2--2--|-2-2-2-2-2-2----|
E ]-------------------|-------------|-------------------|----------------|

Gb]-14-14-14-14-14-14-|-------------|-2-2-2-2-2-2-|-2--------------|
Bb]-10-10-10-10-10-10-|-------------|-5-5-5-5-5-5-|-5--------------|
Gb]-11-11-11-11-11-11-|-------------|-6-6-6-6-6-6-|-6--------------|
Db]-12-12-12-12-12-12-|-------------|-7-7-7-7-7-7-|-7--------------|
Ab]-2--2--2--2--2--2--|-2-2-2-2-2-2-|-2-2-2-2-2-2-|-2--------------|
E ]-------------------|-------------|-------------|---------]------|

Fin

Any question, suggestions, and changes you have please feel free to email me at 
Darkstar04_2@hotmail.com
Related for Blaise Bailey Finnegan Iii tab