Song name
# A B C D E F G H I J K L M N O P Q R S T U V W X Y Z

Godspeed You Black Emperor - Moya tab

As played here: http://www.youtube.com/watch?v=0p3-HWu3Z74

3/4 Time Signature 

Starts at 7:12

Db --9-11-12--11-12-14--12-14-16--14-16-17----------|
Bb -------------------------------------------------|
F  -------------------------------------------------|
Db -------------------------------------------------|
Bb -------------------------------------------------|
Eb -------------------------------------------------|
    

Db --14-16-14--12-14-12--11-12-11--9-11-12----------|
Bb -------------------------------------------------|
F  -------------------------------------------------|
Db -------------------------------------------------|
Bb -------------------------------------------------|
Eb -------------------------------------------------|


Db --7-9-11--5-7-11--4-5-7--2-4-5---------|
Bb ---------------------------------------|
F  ---------------------------------------|
Db ---------------------------------------|
Bb ---------------------------------------|
Eb ---------------------------------------|
   
Repeat this entire section once.

Starts at 7:46
Db --9-11-12--11-12-14--12-14-16--14-16-17----------|
Bb -------------------------------------------------|
F  -------------------------------------------------|
Db -------------------------------------------------|
Bb -------------------------------------------------|
Eb -------------------------------------------------|

Repeat this 8 times, gradually increasing tempo

Starts at 8:27
Db -------------------------------------------------|
Bb -------------------------------------------------|
F  --5-7-8--7-8-10--8-10-12--10-12-13---------------|
Db -------------------------------------------------|
Bb -------------------------------------------------|
Eb -------------------------------------------------|

Repeat this 4 times.

Starts at 8:44
Db -------------------------------------------------|
Bb --12-10-8--7-8-7--5-7-5--3-5-3-------------------|
F  -------------------------------------------------|
Db -------------------------------------------------|
Bb -------------------------------------------------|
Eb -------------------------------------------------|

Repeat this 4 times.

Starts at 9:01
Db --9------9(bend)---|
Bb -------------------|
F  -------------------|
Db -------------------|
Bb -------------------|
Eb -------------------|

Starts at 9:18
Db -------------------------------------------------|
Bb -------------------------------------------------|
F  --5-7-8--7-8-10--8-10-12--10-12-13---------------|
Db -------------------------------------------------|
Bb -------------------------------------------------|
Eb -------------------------------------------------|

Repeat this 8 times

Starts at 9:53
Db ---9-----|
Bb ---7-----|
F  ---------|
Db ---------|
Bb ---------|
Eb ---------|

Repeat this 5 times
Tap to rate this tab
# A B C D E F G H I J K L M N O P Q R S T U V W X Y Z