Song name
# A B C D E F G H I J K L M N O P Q R S T U V W X Y Z

Godspeed You Black Emperor - East Hastings tab

I found this tablature on GYBE's homepage made by Jackson Willis and i think it is very accurate.
Hope you enjoy the tabs and good luck! - TimHibbins



East Hastings

Author: Jackson Willis


STANDARD TUNING, CAPO 1ST FRET

I tabbed this song out for one guitar with a capo on the 1st fret. All frets are in 
relation to the capo.

Capo - 1st fret

2:15 - again at 5:08 - and again at 6:16
|----------------------------------------------------|
|----------------------------------------------------|
|---5-5-5/4-4----5-5-5/1-1----5-5-5\7-7----5-5-5/2-2-|
|----------------------------------------------------|
|-0------------0------------0------------0-----------|
|----------------------------------------------------|

4:33 - again at 5:42
|----------------------------------------------------|
|----------------------------------------------------|
|---9-9-9-10/7----7-7-7-9/5----5-5-5-7/4----4-4-4b-2-|
|----------------------------------------------------|
|-0-------------0------------0------------0----------|
|----------------------------------------------------|

6:33
|-------------------------------------------|
|-------------------------------------------|
|---5-5-5/4-4----5-5-5-5b/2----5-5-5\7-7----|
|-------------------------------------------|
|-0------------0-------------0-----------0--|
|-------------------------------------------|

6:49
|-------------------------------------------------------------------|
|-------------------------------------------------------------------|
|-9-10p9-9-10p9-9-10p9-9-10p9-10p9-7--7-9p7-7-9p7-7-9p7-7-9p7-9p7-5-|
|-------------------------------------------------------------------|
|-------------------------------------------------------------------|
|-------------------------------------------------------------------|

|--------------------------------------------------------------|
|--------------------------------------------------------------|
|-5-7p5-5-7p5-5-7p5-5-7p5-7p5-4--4-5p4-4-5p4-4-5p4-4-5p4-5p4-2-|
|--------------------------------------------------------------|
|--------------------------------------------------------------|
|--------------------------------------------------------------|

|-------------------------------------------------------------------|
|-------------------------------------------------------------------|
|-9-10p9-9-10p9-9-10p9-9-10p9-10p9-7--7-9p7-7-9p7-7-9p7-7-9p7-9p7-5-|
|-------------------------------------------------------------------|
|-------------------------------------------------------------------|
|-------------------------------------------------------------------|

|---------------------------------------------------|
|---------------------------------------------------|
|-5-7p5-5-7p5-5-7p5-5-7p5-7p5-4--4-5-4-5-4-5-4-5-4b-|
|---------------------------------------------------|
|---------------------------------------------------|
|---------------------------------------------------|

8:23
|------------|
|------------|
|------------|
|------------|
|---7------3-|
|-5------1---|

8:50
|-12-12-10-10---10-10-8-8---8-8-7-7---7-7-5-5-|
|---------------------------------------------|
|---------------------------------------------|
|---------------------------------------------|
|---------------------------------------------|
|---------------------------------------------|

|-5-5-7-7---7-7-8-8---8-8-10-10---10-10-12-12-|
|---------------------------------------------|
|---------------------------------------------|
|---------------------------------------------|
|---------------------------------------------|
|---------------------------------------------|

9:48
|-12-12/10-10/8-8/7-7/5-5h7-5-5h7-5-5h7-5----------------|
|-----------------------------------------5-6------------|
|---------------------------------------------5-4h5-4b-2-|
|--------------------------------------------------------|
|--------------------------------------------------------|
|--------------------------------------------------------|

10:28
|---------------------------------------------|
|-10-12-12-10--10-12-12-10-10-12-12-10-10/8-8-|
|---------------------------------------------|
|---------------------------------------------|
|---------------------------------------------|
|---------------------------------------------|
At 10:47, he frantically bends 8, on the B string.
Tap to rate this tab
 
# A B C D E F G H I J K L M N O P Q R S T U V W X Y Z