Goetz Widmann - Die Vier Jahreszeiten tab

Die vier Jahreszeiten - Götz Widmann


Intro:

3x:
   C                               Em
e:|-------------------------------|-0-----------------------------|
B:|-1-p-0---1-p-0---1-------3-----|---------0---------------0-----|
G:|-----0-------0-------0-------0-|-----0-------0-------0-------0-|
D:|-------------------------------|-----------------2-------------|
A:|-3-----------------------------|-------------------------------|
E:|-------------------------------|-0-----------------------------|

1x:
   D
e:|---------2-------2-------2-----|
B:|---------3-------3-------3-----|
G:|-----2-------2-------2-------2-|
D:|-0-----------------------------|
A:|-------------------------------|
E:|-------------------------------|

2x:
   Em
e:|-----------------0-------------|
B:|---------0---------------0-----|
G:|-----0-------0-------0-------0-|
D:|-------------------------------|
A:|-------------------------------|
E:|-0-----------------------------|

There are some small differences between intro and verse but it's easy to find out 
if you're listening to the song.
Mostly D-scheme in the verse is like the last Em-Scheme in intro:
   D
e:|-----------------2-------------|
B:|---------3---------------3-----|
G:|-----2-------2-------2-------2-|
D:|-0-----------------------------|
A:|-------------------------------|
E:|-------------------------------|


Verse 1:
C              Em
Wald und Wiese blüh'n so schön
C                Em
Frühlingsluft spazieren geh'n
C            Em
mir die neue Welt anschau'n
          D            Em
könnt ich vorher Einen bau'n


Chorus:
      D
Irgendwann,
      Em
irgendwann,
      D/A
irgendwann
             Em
werd' ich es lassen.
      D
Irgendwann,
      Em
irgendwann
          B         Em
nur der Moment muss passen


Verse 2:
Sommermondnacht im August
klar da hat man einfach Lust
sitzt im Garten eines Freunds
und raucht Lieder singend Joints

Chorus

Verse 3:
Regen vor den Fensterscheiben
Herbstabend zuhause bleiben
und mal eine Nacht allein
dankbar für die Ernte sein

Chorus

Verse 4:
Dezember draußen dicker Schnee
heute tu ich mir nicht weh
ich muss nicht raus hab alles da
vielleicht schaff' ich's ja nächstes Jahr

Chrous

Verse 5:
Wald und Wiese blüh'n so schön
Frühlingsluft spazieren geh'n
mir die neue Welt anschau'n
könnt' ich vorher... pfff


It's not perfect but sounds well.
Tap to rate this tab
 
# A B C D E F G H I J K L M N O P Q R S T U V W X Y Z