Song name
# A B C D E F G H I J K L M N O P Q R S T U V W X Y Z

Gofa - Crusher 20 tab

	********************
	* -=Crusher 2001=- *
	*    By Rob McW    *
	********************

Okay, this isn't a finished tab,
actully i just made it up in
my head now. I know the title sucks,
but i can't think of anything better,
or any words. :)

^bend
..rest
/-\palm mute
.half rest
h hammer
p pulloff

Riff 1

|12------11..-----------------|
|--11--13---------------------|
|----12-----------------------|
|-----------------------------|
|-----------------------------|
|-----------------------------|

Riff 2

|-----------------------------|
|-----------------------------|
|-----------------------------|
|-3.--------------------------|
|-3.-2.-1.-2.-3.--------------|
|----2.-1.-2.-3.--------------|

Riff 3

|-----------------------------|
|-----------------------------|
|-----------------------------|
|-----------------------------|
|------1-2^-------------------|
|3-1-1------------------------|

Riff 4

         /---\
|-----------------------------|
|--------------(strum hard)---|
|-----------------------------|
|--4h5p5-6--------2-----------|
|---------5-------2-3-1-------|
|----------6--------3-1-------|

and that's the whole "song". :)

it goes:
riff 1 x4
riff 2 x2 or x4
riff 3 x2
riff 2 x2 or x4
riff 3 x2
riff 4

and then scratch
Tap to rate this tab
# A B C D E F G H I J K L M N O P Q R S T U V W X Y Z