Guitaretab - guitar tabs
Song name
# A B C D E F G H I J K L M N O P Q R S T U V W X Y Z

Gogmagog - I Will Be There tab

Gogmagog - I Will Be There
Tabbed by Karel "Maiden" Potužník (kaja.sk8@seznam.cz)


Intro

e|--------------------------|
B|--------------------------|
G|--99--77--99--55--99--77--|
D|--99--77--99--55--99--77--|
A|--------------------------|
E|--------------------------|


Harmony - this is maybe wrong
(one guitar play riff on B string and second guitar on D string)

e|------------------------------------------------------------------------|
B|--12-12-11-11-12-12--12-12-11-11-12-12--12-12-11-11-12-12--12-12-11-11-~| - 1st gtr
G|------------------------------------------------------------------------|
D|--9-9-7-7-9-9--9-9-7-7-9-9--9-9-7-7-9-9--9-9-7-7-~----------------------| - 2nd gtr
A|------------------------------------------------------------------------|
E|------------------------------------------------------------------------|


Verse
[ Tab from: http://www.guitaretab.com/g/gogmagog/179704.html ]
e|---------------------------------------------------------------------------------|
B|---------------------------------------------------------------------------------|
G|---------------------------------------------------------------------------------|
D|--12-----------------------9----------------7--5----------------7----------------|
A|--10-10-10-10-10-10-10-10--7-7-7-7-7-7-7-7--5--3-3-3-3-3-3-3-3--5-5-5-5-5-5-5-5--|
E|---------------------------------------------------------------------------------|


<< Before chorous play the same as intro >>

and then..
(let it sustain)

e|-------------|
B|-------------|
G|-------------|
D|--7-------7--|
A|--5-------5--|
E|-------------|


and Chorous

e|-----------------------------|
B|-----------------------------|
G|-----------------------------|
D|--12--9--5--7----4--5--9--7--|
A|--10--7--3--5----2--3--7--5--|
E|-----------------------------|


e|---------------|
B|---------------|
G|---------------|
D|--5--7--12--9--|
A|--3--5--10--7--|
E|---------------|

etc...
×
I Will Be There