Song name
# A B C D E F G H I J K L M N O P Q R S T U V W X Y Z

Gogol Bordello - Sally tab

-------------------------------------------------------------------------------
			     SALLY - Foxboro Hot Tubs
-------------------------------------------------------------------------------
Tabbed by: D. Hero
Email:

Tuning: Standard

e|--X-X--|
B|--X-X--|
G|--X-X--|   Something like that
D|--X-X--|
A|--X-X--|
E|--X-X--|

Intro/Verse:
e|----------------------|
B|----------------------|
G|------------2-2--5-5--| Repeat 10 times
D|--2-2--5-5--2-2--5-5--|
A|--2-2--5-5--0-0--3-3--|
E|--0-0--3-3------------|

Pre-Chorus:
e|-----------------------------------------------------|
B|-----------------------------------------------------|
G|--4-4-4-4-4-4-4-4-4-4-4-4-4-4-4-4-2-2-2-2-2-2-2-2-2--|
D|--4-4-4-4-4-4-4-4-4-4-4-4-4-4-4-4-2-2-2-2-2-2-2-2-2--|
A|--2-2-2-2-2-2-2-2-2-2-2-2-2-2-2-2-0-0-0-0-0-0-0-0-0--|
E|-----------------------------------------------------|

Chorus:
e|-------------------------------------------|
B|-------------------------------------------|
G|-------------------------------------------| Repeat 4 times
D|--2-2-2-2-2-5-5-5-5-5-7-7-7-7-7-9-9-9-9-9--|
A|--2-2-2-2-2-5-5-5-5-5-7-7-7-7-7-9-9-9-9-9--|
E|--0-0-0-0-0-3-3-3-3-3-5-5-5-5-5-7-7-7-7-7--|

Verse:
e|----------------------|
B|----------------------|
G|------------2-2--5-5--| Repeat 10 times
D|--2-2--5-5--2-2--5-5--|
A|--2-2--5-5--0-0--3-3--|
E|--0-0--3-3------------|

Pre-Chorus:
e|-----------------------------------------------------|
B|-----------------------------------------------------|
G|--4-4-4-4-4-4-4-4-4-4-4-4-4-4-4-4-2-2-2-2-2-2-2-2-2--|
D|--4-4-4-4-4-4-4-4-4-4-4-4-4-4-4-4-2-2-2-2-2-2-2-2-2--|
A|--2-2-2-2-2-2-2-2-2-2-2-2-2-2-2-2-0-0-0-0-0-0-0-0-0--|
E|-----------------------------------------------------|

Chorus:
e|-------------------------------------------|
B|-------------------------------------------|
G|-------------------------------------------| Repeat 4 times
D|--2-2-2-2-2-5-5-5-5-5-7-7-7-7-7-9-9-9-9-9--|
A|--2-2-2-2-2-5-5-5-5-5-7-7-7-7-7-9-9-9-9-9--|
E|--0-0-0-0-0-3-3-3-3-3-5-5-5-5-5-7-7-7-7-7--|

Solo:
e|------------------------------------------------------------|
B|------------------------------------------------------------|
G|--9b-9b-9b-9b-9b-9b-9b-9b--11b-11b-11b-11b-11b-11b-11b-11b--|
D|------------------------------------------------------------|
A|------------------------------------------------------------|
E|------------------------------------------------------------|
  Sorry I figure out the last thing he does at the beginning of the solo.

       Repeat 3 times          4th time/last time                 
e|-------------------------|-------------------------|
B|-------------------------|-------------------------|
G|--9---9-7---7---7---7~~--|--9---9-7---7---7--------|
D|----9-----7---7---7------|----9-----7---7---7-9~~--|
A|-------------------------|-------------------------|
E|-------------------------|-------------------------|

Chorus:
e|-------------------------------------------|
B|-------------------------------------------|
G|-------------------------------------------| Repeat 8 times
D|--2-2-2-2-2-5-5-5-5-5-7-7-7-7-7-9-9-9-9-9--|
A|--2-2-2-2-2-5-5-5-5-5-7-7-7-7-7-9-9-9-9-9--|
E|--0-0-0-0-0-3-3-3-3-3-5-5-5-5-5-7-7-7-7-7--|

Outro:
e|-----------------------------------------------|
B|-----------------------------------------------|
G|------------2-2--5-5--------------2-2--5-5-----|
D|--2-2--5-5--2-2--5-5----2-2--5-5--2-2--5-5--2--|
A|--2-2--5-5--0-0--3-3----2-2--5-5--0-0--3-3--2--|
E|--0-0--3-3--------------0-0--3-3------------0--|


| /  slide up
| \  slide down
| h  hammer-on
| p  pull-off
| ~  vibrato
| +  harmonic
| x  Mute note
===============================================================================
Tap to rate this tab
 
# A B C D E F G H I J K L M N O P Q R S T U V W X Y Z