Song name
# A B C D E F G H I J K L M N O P Q R S T U V W X Y Z

Gogol Bordello - God-like tab

Help us improve GuitareTab! Take a short survey!
Tabbed by Joel Schwartz - jspsych9@yahoo.com
Gogol Bordello - God-Like from the album Viola Intruder:

Intro
 Am             G           Am           E    Am
E------------------3--1--0-----------------0--0----------|
B----1--0----------3--3--1-----1--0--------0--1--1-------|
G----2--2--2-0-----------------2--2--2-----1--2---2------|
D--2-------2------------------2-------2----2--2----------|
A-0--------------2-----------0------------2---0----------|
E---------------3------------------------0---------------|
 C              G           Am             E     Am
E------------------3--1--0-----------------0-----0-------|
B----1-------------3--3--1----1--0---------0-----1-------|
G----0--4--2------------------2--2--2------1---- 2-------|
D--2----5--2-----------------2-------2-----2-----2-------|
A-3---------------2---------0-------------2------0-------|
E----------------3-----------------------0---------------|

Am        E        Am
You and I resemble God
C                  G      C
made by him to come after him
Am               G
everything in us resembles God
Am         E   Am
except for one thing
Am               G
everything in us resembles God
Am         E   Am
except for one thing

Rest of Song: Dm Am E Am
Related for God-like tab