Song name
# A B C D E F G H I J K L M N O P Q R S T U V W X Y Z

Gogol Bordello - Tribal Connection chords

Highlighted       Show chord diagrams
Bm/A/Dm/G

INTRO:
Follow the melody

e-2-x-2-x-2-x----|
b-3-x-5-x-3-x----|
G-2-x-2-x-2-x----|
D-2-x-2-x-4-x----|
A-2-x-2-x-2-x----|
E-2-x-2-x-2-x----|


Bm   A  Dm G

e-2--5--5--3
b-3--5--5--3
G-4--6--7--4
D-4--7--7--5
A-2--7--5--5
E-2--5--5--3

By Ted E (Aka Mr2clean)


I dont realy know if this is the way to play it... but I watched a live 
preformance and took it from there... sounds somewhat ok!
Tap to rate this tab
# A B C D E F G H I J K L M N O P Q R S T U V W X Y Z