Song name
# A B C D E F G H I J K L M N O P Q R S T U V W X Y Z

Gogol Bordello - 60 Revolutions tab

Intro :
|------8---------7--------7---------0----------8---------7-------------|
|--10-----10--9-----9--9-----9--10-----10--10-----10--9----------------|
|----------------------------------------------------------------------|
|----------------------------------------------------------------------|
|----------------------------------------------------------------------|
|----------------------------------------------------------------------|

...and then the accordion comes in.

Alternatively, if you do not have an accordion, this will lead you into the song nicely...

Intro :
|------8---------7--------7---------0----------8---------7--------7--------|
|--10-----10--9-----9--9-----9--10-----10--10-----10--9-----9--9-----9--10-|
|--------------------------------------------------------------------------|
|--------------------------------------------------------------------------|
|--------------------------------------------------------------------------|
|--------------------------------------------------------------------------|
Tap to rate this tab
 
# A B C D E F G H I J K L M N O P Q R S T U V W X Y Z